Oops, an error
Loading. Please wait.

All Torn Down Bass

version 2
version 2

Whole song

Interactive

4,442 views 12 this week
3 commentsread comments
1 2 3 4 5
x 4
add to favorites
launch autoscroll
font size
0
reset
guitar tuner
×
Best way to learn
"All Torn Down"
Autoscroll
slow
fast
+/-
esc
set tempo
stop
Song:     All Torn Down
Band:     The Living End
CD:       The Living End
Bassist:  Scott Owen
Tabber:   James Bradley (Originally tabbed by ThePuNkBaSsIsT, but a
few parts were off a little bit and he left out a few parts, but
overall he did an excellent job)

> means keep playing

Intro:
(the first part is all guitar)
G--------------------------------------------------------------------
D--------------------------------------------------------------------
A--4---4----------------4---4----------------------------------------
E-------5--5-4---4-4---4-----5---5-4---4>----------------------------

Verse and Intro, Part 2:
G--------------------------------------------------------------------
D-------------------------2------------------------------------------
A--4-4--2-4-4--2-4-4--2-4---4-2--------------------------------------
E--------------------------------------------------------------------


G--------------------------------------------------------------------
D-----------------------------2--------------------------------------
A--0-0----0-0----0-0--0-0-2-4----------------------------------------
E-------4------4-----(4)---------------------------------------------
                      ^
This means that       |
sometimes he plays that note instead

Pre-Chorus:
G--------------------------------------------------------------------
D--------------------------------------------------------------------
A--------------------------------------------------------------------
E--0>-4>-------------------------------------------------------------

Chorus (This isn't exactly right, but it fits in the chords):
G------------------------------|-------------------------------------
D------------------------------|-------------------------------------
A-----4-7----6-9-7--6-7-6-4----|-4-----------------------------------
E--5------7----------------7-5-|-------------------------------------

Bridge 1:
G-----------|--------------------------------------------------------
D-----------|-2--1---------------------------------------------------
A--4>-0>-2>-|------4--2-0--------------------------------------------
E-----------|-------------4--4>--------------------------------------

The solo is basically the same as the verse, with a few variations.
Don't play the first two lines of the verse right after the solo.

Bridge 2 (with key change):
G-----------|----|---------------------------------------------------
D-----------|----|---------------------------------------------------
A--4>-0>-2>-|----|-2>------------------------------------------------
E-----------|-4>-|----3>---------------------------------------------

Outro:
G--------------------------------------------------------------------
D-----------------------1--------------------------------------------
A--4--4-------------------4------------------------------------------
E-------5--5-4--4-4-2-0----------------------------------------------
The D# sounds to me like it is an octave lower, but if you don't want
to retune your bass, you can play it like I wrote it.

Song Structure:
Intro
Verse x 4
Pre-Chorus
Verse x 2
Pre-Chorus
Chorus x 3
Verse x 2
Pre-Chorus
Chorus x 3
Bridge 1 x 2
Verse(Solo) x 4
Bass rest
Verse
Pre-Chorus
Chorus x 3
Bridge 2(part one) x 4
Bridge 2(part two)
Bridge 2{part three) x 2
Outro x 2

I know there's some parts that aren't right, but everything should
fit in the chords, so even if it's not exactly right, it should sound
good.
Suggest correction
comments
print report bad tab
3 comments total.
0 reply
equal_heights 30 Dec 16, 2004 07:00 PM

seems to fit pretty well. good job.

0 reply
benh128 168 Apr 08, 2006 11:11 PM

pretty good tab. funny, my music teacher's name is james bradley...

0 reply
Adrenakill 10 Jul 05, 2009 06:21 AM

it's a good tab, just the chorus i believe goes something like this:

G------------------------------|-------------------------------------
D-----------------------------2|-------------------------------------
A----4-7----6-9-7-6-6-4-4-2-4--|-4-----------------------------------
E-5------7---------------------|-------------------------------------

I think that's it, other than that good tab!

guest
You may want to rate the tab now too:
select rating
Wanna post a correction for this tab? Suggest correction