Oops, an error
Loading. Please wait.

All Torn Down Bass Tab

version 3
version 3

Whole song

Interactive

879 views 3 this week
no commentswrite comment
1 2 3 4 5
please rate
add to favorites
launch autoscroll
font size
0
reset
guitar tuner
Autoscroll
slow
fast
+/-
esc
set tempo
stop
Help us to improve Ultimate-Guitar.com Take our survey!
×
Difficulty
intermediate
Intro:
(the first part is all guitar)
G--------------------------------------------------------------------|
D--------------------------------------------------------------------|
A--------------------------------------------------------------------|
E---9~-----05~------04~------44~-------------------------------------|

Verse and Intro, Part 2:
G--------------------------------------------------------------------|
D--------------------------------------------------------------------|
A---------------------------7----------------------------------------|
E----9-9--7-9-9--7-9-9--7-9---9-7------------------------------------|


G--------------------------------------------------------------------|
D--------------------------------------------------------------------|
A--------------------------------------------------------------------|
E----5-5--4-5-5--4-5-5--4-5-5/7-7/9-9--------------------------------|

Pre-Chorus:
G---------------------------------------------------------------------|
D---------------------------------------------------------------------|
A---------------------------------------------------------------------|
E--0-00-000--444444---------------------------------------------------|

Chorus (This isn't exactly right, but it fits in the chords):
G----------------------------|---------------------------------------|
D----------------------------|---------------------------------------|
A----4-7----6-9--------------|-----4-7----6-9------------------------|
E--5------7------0-00-000----|---5------7------9~--------------------|

Bridge 1:
G-----------|--------------------------------------------------------|
D-----------|-2--1---------------------------------------------------|
A--4>-0>-2>-|------4--2-0--------------------------------------------|
E-----------|-------------4--4>--------------------------------------|


Bridge 2 (with key change):
G-----------|----|---------------------------------------------------|
D-----------|----|---------------------------------------------------|
A--4>-0>-2>-|----|-2>------------------------------------------------|
E-----------|-4>-|----3>---------------------------------------------|

Outro:
G--------------------------------------------------------------------|
D--------------------------------------------------------------------|
A--------------------------------------------------------------------|
E--9~-----05~-----04~-----44~----------------------------------------|

Thanks tons to old mate who did the version 2. it was a little off.
i know this one is write because i used it for school certificate assessment and scored 
and that covered all the things needed for performance.

listen to the song for the timing and song structure.

dont forget to rate!
xo <3
Suggest correction
Give kudos to tab author, rate the tab!
1 2 3 4 5
comments
print report bad tab
guest
You may want to rate the tab now too:
select rating
Wanna post a correction for this tab? Suggest correction