Oops, an error
Loading. Please wait.

All Torn Down Tab

version 3
version 3

Whole song

Interactive

22,819 views 12 this week
8 commentsread comments
1 2 3 4 5
x 22
add to favorites
launch autoscroll
font size
0
reset
how to read this tab
guitar tuner
Autoscroll
slow
fast
+/-
esc
set tempo
stop
Help us to improve Ultimate-Guitar.com Take our survey!
×
THE LIVING END: All Torn Down
     tabbed by Marko

This stuff right here is dead accurate, enjoy this mastepiece of a song!

LEGEND:
h - hammer-on
p - pull-off
s - slide
()- harmonic
~ - vibrato

Intro:  

                         
e---------------------------------------------------|
b---------5-----------------5-----------------5-----|
g-----6-----6-----------6-----6-----------6-----6---|
d---6---6-----6-------6---6-----6-------6---6-----6-|
a-4-------------------------------------------------|
e----------------0-5---------------0-4--------------|
 / p a l m     m u t e d...........................

  
e----------------------|
b-----------4----------|
g-------5-----5--------|
d-----6---6-----6------|(x2)
a------------------4s6-|
e-4-4------------------|
  ......................\

                        
e---------------------------------------------------|
b---------5-----------------5-----------------5-----|
g-----6-----6-----------6-----6-----------6-----6---|
d---6---6-----6-------6---6-----6-------6---6-----6-|
a-4-------------------------------------------------|
e----------------0-5---------------0-4--------------|
 
 
e----------------------|
b-----------4----------|
g-------5-----5--------|
d-----6---6-----6------|
a------------------4s6-|
e-4-4------------------|
 

                          
e---------------------------------------------------|
b---------5-----------------5-----------------5-----|
g-----6-----6-----------6-----6-----------6-----6---|
d---6---6-----6-------6---6-----6-------6---6-----6-|
a-4-------------------------------------------------|
e----------------0-5---------------0-4--------------|
 / p a l m     m u t e d...........................

  
e-------------4-4-4--|
b-----------4-4-4-4--|
g---------5-5-5-5-5--|
d-------6-6-6-6-6-6--|(x2)
a-----6-6-6-6-6-6-6--|
e-4-4-4-4-4-4-4-4-4--|
  ......................\
  
 
  
e-------------------------------------5--------------|
b----------------9-9s7-7s5-5---------5-5-------------|
g-6-6--4--6--6----------------------6---6--8^--8^-8-6|(x2)
d-6-6--4--6--6---6-6s4-4s2-2---7---7-----------------|
a-4-4--2--4--4-----------------7--7------------------|
e------------------------------5-5-------------------|




Verse: *upwards ska strum pattern*

 
e--4-4-4-4-4-4-4-4--5-5-5-5-5-5-5-5--|
b--5-5-5-5-5-5-5-5--5-5-5-5-5-5-5-5--|
g--6-6-6-6-6-6-6-6--6-6-6-6-6-6-6-6--|
d--6-6-6-6-6-6-6-6--7-7-7-7-7-7-7-7--|(x2)
a--4-4-4-4-4-4-4-4--7-7-7-7-7-7-7-7--|
e-------------------5-5-5-5-5-5-5-5--|

                  
e---------0----------------------|
b--------0-0---------------------|
g-------1---1--------------------|
d--2---2-----2------6-6-6-6-6-6--|
a--2--2-------------6-6-6-6-6-6--|
e--0-0--------------4-4-4-4-4-4--|
                   

Repeat from start of verse again.


Chorus:
  
e-----------0--------0------------------0-----------------|
b-----------0--0------0-----------------0-----------------|
g-2-2--4-4--1--1---1---1------2-2--4-4--1--9-9s8-8s6-6s4--|
d-2-2--4-4--2----2------------2-2--4-4--2-----------------|
a-0-0--2-2--2-----------------0-0--2-2--2--7-7s6-6s4-4s2--|
e-----------0---------------------------0-----------------|
  all torn down...

 
e-----------4--|
b-----------5--|
g-2-2--4-4--6--|
d-2-2--4-4--6--|
a-0-0--2-2--4--|
e--------------|


Verse 

Chorus

Pre Solo:   

  
e------4-------4--------0-------2----|
b----5-5-5---5-5-5----2-2-2---4-4-4--|
g--6-6-6-6-6-6-6-6--2-2-2-2-4-4-4-4--|
d--6-6-6-6-6-6-6-6--2-2-2-2-4-4-4-4--|(x2)
a--4-4-4-4-4-4-4-4--0-0-0-0-2-2-2-2--|
e------------------------------------|
    You got no reason . . . . . 

                  
e---------0----------------------|
b--------0-0---------------------|
g-------1---1--------------------|
d--2---2-----2------6-6-6-6-6-6--|
a--2--2-------------6-6-6-6-6-6--|
e--0-0--------------4-4-4-4-4-4--|

Solo:

e-----------------------------------------|
b-----------------------------------------|
g---6-4-------------6-4---------------6-4-|
d-------6-7-6-4---------6-7-6-4-----------|
a-4-------------7-4-------------7---------|
e-----------------------------------5-----|


e--------------------------------------------------|
b--------------------------------------------------|
g----------------------------------4~---4-6-6p4-6--|
d-6-7-6---7-6--7-6---7-6-----7-6-7---6-------------|
a-------4----4-----4----7--4-----------------------|
e--------------------------------------------------|


e--------------------4-5-7--9-7-9-11-12-11~-|
b--------4-5-7-4-5-7------------------------|
g--6p4-6------------------------------------|
d-------------------------------------------|
a-------------------------------------------|
e-------------------------------------------|

e-9~-----9--11--9h11p9---------------------------------------|
b----9~--9--------------9-----------------10-9----10-9-------|
g--------------------------9---------------------------------|
d-------------------------------11-11-9-11-----11------11----|
a------------------------------------------------------------|
e------------------------------------------------------------|


e-----------------------------------9-------------------------------------------------|
b-10-9-----10-9-----10-9h10h9---------12p9--------------------------------------------|
g------------------------------9-----------11p9----11p9------11^-11-9-----------------|
d-------11-------11-----------------------------11------11-9----------11-9-11--11-9-11|
a-------------------------------------------------------------------------------------|
e-------------------------------------------------------------------------------------|


e--------------------------------------|
b-----------------------7-s-9-s-10-----|
g--------------------------------------|
d-11-11s9-9s7-7--7------4-s-6-s-7------|
a--------------------------------------|
e-9--9-s7-7s5-5--5---------------------|

 
e--4-4-4-4-4-4-4-4--5-5-5-5-5-5-5-5--|
b--5-5-5-5-5-5-5-5--5-5-5-5-5-5-5-5--|
g--6-6-6-6-6-6-6-6--6-6-6-6-6-6-6-6--|
d--6-6-6-6-6-6-6-6--7-7-7-7-7-7-7-7--|
a--4-4-4-4-4-4-4-4--7-7-7-7-7-7-7-7--|
e-------------------5-5-5-5-5-5-5-5--|
                                          * *
e--4-4-4-4-4-4-4-4--5-5-5-5-5-5-5-5-5-5---(5)--|
b--5-5-5-5-5-5-5-5--5-5-5-5-5-5-5-5-5-5---(5)--|
g--6-6-6-6-6-6-6-6--6-6-6-6-6-6-6-6-6-6---(5)--|(x2)
d--6-6-6-6-6-6-6-6--7-7-7-7-7-7-7-7-7-7---(5)--|
a--4-4-4-4-4-4-4-4--7-7-7-7-7-7-7-7-7-7---(5)--|
e-------------------5-5-5-5-5-5-5-5-5-5---(5)--|

(** little harmonic strum)

e--4-4-4-4-4-4-4-4--5-5-5-5-5-5-5-5--|
b--5-5-5-5-5-5-5-5--5-5-5-5-5-5-5-5--|
g--6-6-6-6-6-6-6-6--6-6-6-6-6-6-6-6--|
d--6-6-6-6-6-6-6-6--7-7-7-7-7-7-7-7--|
a--4-4-4-4-4-4-4-4--7-7-7-7-7-7-7-7--|
e-------------------5-5-5-5-5-5-5-5--|

                  
e---------0----------------------|
b--------0-0---------------------|
g-------1---1--------------------|
d--2---2-----2------6-6-6-6-6-6--|
a--2--2-------------6-6-6-6-6-6--|
e--0-0--------------4-4-4-4-4-4--|
  
e-----------0--------0------------------0-----------------|
b-----------0--0------0-----------------0-----------------|
g-2-2--4-4--1--1---1---1------2-2--4-4--1--9-9s8-8s6-6s4--|
d-2-2--4-4--2----2------------2-2--4-4--2-----------------|
a-0-0--2-2--2-----------------0-0--2-2--2--7-7s6-6s4-4s2--|
e-----------0---------------------------0-----------------|
  all torn down...

e---------|-----4-------4--------0-------2----|
b---------|---5-5-5---5-5-5----2-2-2---4-4-4--|
g-2-2-4-4-|-6-6-6-6-6-6-6-6--2-2-2-2-4-4-4-4--|
d-2-2-4-4-|-6-6-6-6-6-6-6-6--2-2-2-2-4-4-4-4--|(x4)
a-0-0-2-2-|-4-4-4-4-4-4-4-4--0-0-0-0-2-2-2-2--|
e---------|-----------------------------------|
           You got no reason . . . . . 

e--------------------|
b--------------------|
g--------------------|
d-6-6-6-6-6-6-6-6-6--|
a-6-6-6-6-6-6-6-6-6--|
e-4-4-4-4-4-4-4-4-4--|

(drum fill)

e-----4-------4-------4-----2-------0-------0-------0-------2-|
b---5-5-5---5-5-5---5-5-5-4-4-4---2-2-2---2-2-2---2-2-2---4-4-|
g-6-6-6-6-6-6-6-6-6-6-6-6-4-4-4-2-2-2-2-2-2-2-2-2-2-2-2-2-4-4-|
d-6-6-6-6-6-6-6-6-6-6-6-6-4-4-4-2-2-2-2-2-2-2-2-2-2-2-2-2-4-4-|(x2)
a-4-4-4-4-4-4-4-4-4-4-4-4-2-2-2-0-0-0-0-0-0-0-0-0-0-0-0-0-2-2-|
e-------------------------------------------------------------|



e---------------------------------------------------|
b---------5-----------------5-----------------5-----|
g-----6-----6-----------6-----6-----------6-----6---|
d---6---6-----6-------6---6-----6-------6---6-----6-|
a-4-------------------------------------------------|
e----------------0-5---------------0-4--------------|
  
e----------------------|
b-----------4----------|
g-------5-----5--------|
d-----6---6-----6------|(x2)
a------------------4s6-|
e-4-4------------------|

(gradually get slower)

e-------------4-|
b------------5--|
g-----6-----6---|
d---6---6--6----|
a-4-------4-----|
e---------------|

The End
Suggest correction
comments
print report bad tab
8 comments total. Showing first comments.
+1 reply
I'm_a_pirate74 26 Jan 14, 2006 03:59 PM

Awesome tab! Great work!

Living End ROCK!

0 reply
buggerya 10 Apr 11, 2006 06:17 AM

Last bit of the intro is actually

e-----------------------|
b------------4----------|
g--------5-----5--------|
d------4---4-----4------|
a------------------6-4--|
e--4-4------------------|

Not so deadly accurate after all, are you mate?

-2 reply
ryan100 288 Jul 07, 2006 08:50 PM

the harmonic strum is only played once in the last verse and it is on the 7th fret, not the 5th. and buggerya is right about the intro. also, in the first half of the chorus, its played like this...

e-----0--------------------|
b-----0--------------------|
g-2-4-1--13-13-14-16-14-13\|
d-2-4-2--------------------|
a-0-2-2--11-11-12-14-12-11\|
e-----0--------------------|

guest
You may want to rate the tab now too:
select rating
Wanna post a correction for this tab? Suggest correction