Oops, an error
Loading. Please wait.

Away From The City Tab

604 views 1 this week
no commentswrite comment
1 2 3 4 5
2 more votes to show rating
add to favorites
launch autoscroll
font size
0
reset
how to read this tab
guitar tuner
Autoscroll
slow
fast
+/-
esc
set tempo
stop
Help us to improve Ultimate-Guitar.com Take our survey!
×
Author
Away from the City - TLE

Tabbed by: Matt Heal
Email: mattheal @ Gmail.com

Intro / Verse
e|----------x-x-x-x--|
b|----------x-x-x-x--|
g|---10---9-x-x-x-x--|
d|---x----x-x-x-x-x--|
a|---8--0-7-x-x-x-x--|
E|-0--------x-x-x-x--|

Chorus (away from the city...)
e|-5-5-5-5----5-5-5-5--------------------|
b|-5-5-5-5----5-5-5-5--------------------|
g|-5-5-5-5----5-5-5-5---9-9-9---9-9-9----|
d|-7-7-7-7----7-7-7-7---x-x-x---x-x-x----|
a|-7-7-7-7----7-7-7-7---7-7-7---7-7-7----|
E|-5-5-5-5----5-5-5-5--0-------0---------|

pt 2 (and I hope that i survive)
e|----------------------------------|
b|----------------------------------|
g|----------------------------------|
d|-101010101010--10/9---10/9----10--|
a|-101010101010--10/9---10/9----10--|
E|-8-8-8-8-8-8---8-/7-0-8-/7-0--8---|

Verse (there is one repeat that has a little change in the timing)
e|----------x-x-x-x--|
b|----------x-x-x-x--|
g|---10---9-x-x-x-x--|
d|---x----x-x-x-x-x--|
a|---8--0-7-x-x-x-x--|
E|-0--------x-x-x-x--|

Chorus (away from the city...)
e|-5-5-5-5----5-5-5-5--------------------|
b|-5-5-5-5----5-5-5-5--------------------|
g|-5-5-5-5----5-5-5-5---9-9-9---9-9-9----|
d|-7-7-7-7----7-7-7-7---x-x-x---x-x-x----|
a|-7-7-7-7----7-7-7-7---7-7-7---7-7-7----|
E|-5-5-5-5----5-5-5-5--0-------0---------|

pt 2 (and I hope that i survive)
e|----------------------------------|
b|----------------------------------|
g|----------------------------------|
d|-101010101010--10/9---10/9----10--|
a|-101010101010--10/9---10/9----10--|
E|-8-8-8-8-8-8---8-/7-0-8-/7-0--8---|


Pre-solo (the "chikkas are faster this time)
e|----------x-x-x-x--|
b|----------x-x-x-x--|
g|---10---9-x-x-x-x--|
d|---x----x-x-x-x-x--|
a|---8--0-7-x-x-x-x--|
E|-0--------x-x-x-x--|

Solo guitar rhythm

e|--------------|
b|--------------|
g|---10-9-7\9---|
d|---x--x-x\x---|
a|---8--7-5\7---|
E|-0-0--0-0-0---|

Cant quite get the lead part

then
e|--------------|
b|--------------|
g|--------------|
d|--7-8-5-7-7---|
a|--7-8-5-7-7---|
E|--5-6-3-5-5---|

then an open Em

Delay bits
e|----------17\15---------------------|
b|-12\----------------10p8-10p8~------|
g|------------------------------------|
d|------------------------------------|
a|------------------------------------|
E|------------------------------------|
quietly building in the back ground is
e|--------------|
b|--------------|
g|---10-9-7\9---|
d|---x--x-x\x---|
a|---8--7-5\7---|
E|-0-0--0-0-0---|

Chorus with differnt fills at the end
e|-5-5-5-5----5-5-5-5------------------|
b|-5-5-5-5----5-5-5-5------------------|
g|-5-5-5-5----5-5-5-5----7/9-----7/9---|
d|-7-7-7-7----7-7-7-7------------------|
a|-7-7-7-7----7-7-7-7------------------|
E|-5-5-5-5----5-5-5-5------------------|

And I hope

e|------------------------------------------------|
b|------------------------------------------------|
g|------------------------------------------------|
d|-101010101010-101010101010-10/9---10/9----10----|
a|-101010101010-101010101010-10/9---10/9----10----|
E|-8-8-8-8-8-8--8-8-8-8-8-8--8-/7-0-8-/7-0--8-----|


outro x 2
e|-------------------|
b|-------------------|
g|---10---9-9-9-9-9--| as needed
d|---x----x-x-x-x-x--|
a|---8----7-7-7-7-7--|
E|-0-----------------|

e|--------------|
b|--------------|
g|--------------|
d|-2--2--2--2---|
a|-2--2--2--2---|
E|-0--0--0--0---|
Suggest correction
Give kudos to tab author, rate the tab!
1 2 3 4 5
comments
print report bad tab
guest
You may want to rate the tab now too:
select rating
Wanna post a correction for this tab? Suggest correction