Oops, an error
Loading. Please wait.

Beware The Moon Tab

version 2
version 2

Whole song

Interactive

622 views 1 this week
no commentswrite comment
1 2 3 4 5
please rate
add to favorites
launch autoscroll
font size
0
reset
how to read this tab
guitar tuner
Autoscroll
slow
fast
+/-
esc
set tempo
stop
Help us to improve Ultimate-Guitar.com Take our survey!
×
Author
Beware The Moon - TLE
Tabbed by - Matt Heal
email: mattheal At Gmail.com

90% of the song is played with an octave pedal, everything except the chorus 
which is just straight Overdrive.

Intro
e|----------------------------------------------------------------------|
b|----------------------------------------------------------------------| 
g|----------------------------------------------------------------------|
d|----------------------------------------------------------------------|
a|--2-4-5-5-4-2---4-5-7-7-5-4---5-7-9-9-7-5---7-9-10-10-9-7--12-12-10-9-|
e|----------------------------------------------------------------------|

e|------------------------------------------------------------|
b|--------------------------------------------------------7~--| 
g|--------------------------------------------------------7~--|
d|------------------------------------------------------------|
a|--2-4-5-5-4-2---4-5-7-7-5-4---5-7-9-9-7-5-------------------|
e|-------------------------------------------2---5--6--7------|


Verse
e|--------------| 
b|--------------|
g|--------------|
d|--------------| x8
a|-22-55-44-01--|
e|--------------|

e|----------------------------|
b|----------------------------|
g|----------------------------|
d|-----------22-----------2-4-|
a|-----11-44--------11-44-----|
e|-22------------22-----------|

e|--------------| 
b|--------------|
g|--------------|
d|--------------| x8
a|-22-55-44-01--|
e|--------------|

e|----------------------------|
b|---------------------22-5-7-|
g|------------------33--------|
d|-----------22--44-----------|
a|-----11-44------------------|
e|-22-------------------------|

pre chorus x 2
e|---------------------------------------------| 
b|---------------------------------------------| 
g|---------------------------------------------|
d|---------------------------------------------| 
a|---2-4-5--4-5-7--5-7-9--7-9-10--14-12-10-9---| 
e|---------------------------------------------| 

e|-----------------------|
b|-----------------------|
g|-----------------------|
d|-----------------------|
a|-777777-1010-99999999--|
E|-----------------------|


Chorus (no ocatve)
e|----------------------------------------|
b|----------------------------------------|
g|-----------77777777--99999999--44444444-|
d|-55555555--77777777--99999999--44444444-|
a|-55555555--55555555--77777777--22222222-|
e|-33333333-------------------------------|

e|------------------------------------------------|
b|------------------------------------------------|
g|-----------77777777--99999999--1111111111111111-|
d|-55555555--77777777--99999999--1111111111111111-|
a|-55555555--55555555--77777777--9-9-9-9-9-9-9-9--|
e|-33333333---------------------------------------|


e|--------------| 
b|--------------|
g|--------------|
d|--------------| x4
a|-22-55-44-01--|
e|--------------|

e|---------------| 
b|---------------|
g|---------------|
d|---------------|
a|-22-55-44-01-2-|
e|---------------|
               * pause on that 2

Verse
e|--------------| 
b|--------------|
g|--------------|
d|--------------| x8
a|-22-55-44-01--|
e|--------------|

e|----------------------------|
b|----------------------------|
g|----------------------------|
d|-----------22-----------2-4-|
a|-----11-44--------11-44-----|
e|-22------------22-----------|

e|--------------------------|
b|--------------------------|
g|--------------------------|
d|--------------------------|
a|----------00-22-44-55-42--|
E|-00-22-33-----------------|

e|--------------------------|
b|--------------------------|
g|--------------------------|
d|----------------------2-4-|
a|----------00----11-44-----|
E|-00-22-33----22-----------|

e|---------------------| 
b|---------------------|
g|---------------------|
d|-------------4-4-4-4-|
a|-22-55-44-01-4-4-4-4-|
e|-------------2-2-2-2-|


Chorus (no ocatve)
e|----------------------------------------|
b|----------------------------------------|
g|-----------77777777--99999999--44444444-|
d|-55555555--77777777--99999999--44444444-|
a|-55555555--55555555--77777777--22222222-|
e|-33333333-------------------------------|

e|------------------------------------------------|
b|------------------------------------------------|
g|-----------77777777--99999999--1111111111111111-|
d|-55555555--77777777--99999999--1111111111111111-|
a|-55555555--55555555--77777777--9-9-9-9-9-9-9-9--|
e|-33333333---------------------------------------|

pre breakdown
e|----------------------------------------------------------------------|
b|----------------------------------------------------------------------| 
g|----------------------------------------------------------------------|
d|----------------------------------------------------------------------|
a|--2-4-5-5-4-2---4-5-7-7-5-4---5-7-9-9-7-5---7-9-10-10-9-7--12-12-10-9-|
e|----------------------------------------------------------------------|

e|------------------------------------------------------------|
b|--------------------------------------------------------7~--| 
g|--------------------------------------------------------7~--|
d|------------------------------------------------------------|
a|--2-4-5-5-4-2---4-5-7-7-5-4---5-7-9-9-7-5-------------------|
e|-------------------------------------------2---5--6--7------|

Breakdown - Guitar is Octave + Wah (I Think)

e|-----------------------------------------------------------------------------|
b|-----------------------------------------------------------------------------|
g|-----------------------------------------------------------------------------|
d|------------2-0---0-22-------------2-0---4~---2-0---4~--2-0---4~-4~-4~-4~-4~-|
a|-2-0---0-22-----2------2-0---0-22------2----------2---------2----------------|
E|-----2---------------------2-------------------------------------------------|


Chorus (no ocatve)
e|----------------------------------------|
b|----------------------------------------|
g|-----------77777777--99999999--44444444-|
d|-55555555--77777777--99999999--44444444-| x 2
a|-55555555--55555555--77777777--22222222-|
e|-33333333-------------------------------|

e|------------------------------------------------|
b|------------------------------------------------|
g|-----------77777777--99999999--1111111111111111-|
d|-55555555--77777777--99999999--1111111111111111-|
a|-55555555--55555555--77777777--9-9-9-9-9-9-9-9--|
e|-33333333---------------------------------------|

Outro
e|------------------------------------| 
b|------------------------------------|
g|-------------------------------4----|
d|-------------------------------4----|
a|-22-55-44-01--2-4-5--4-5-7-7-5-2----|
e|------------------------------------|
Suggest correction
Give kudos to tab author, rate the tab!
1 2 3 4 5
comments
print report bad tab
guest
You may want to rate the tab now too:
select rating
Wanna post a correction for this tab? Suggest correction