Oops, an error
Loading. Please wait.

Black Cat Bass Tab

version 1
version 1

Whole song

Interactive

660 views 1 this week
2 commentsread comments
1 2 3 4 5
please rate
add to favorites
launch autoscroll
font size
0
reset
guitar tuner
Tab Pro tools
  • play this tab
  • loop segment
  • change instrument
  • show fretboard
  • metronome
×
Best way to learn
"Black Cat"
Autoscroll
slow
fast
+/-
esc
set tempo
stop
Contributor
Difficulty
intermediate
My first tab, please comment and rate =)


Intro

G|------------------------|
D|------------------------|
A|-----44--------44-------|
E|----------00--------00--|  x 2

G|------------------------------------|
D|------------------------------------|
A|-44--------44-----------------------|
E|------00--------0----0----0----0----|

Pre-Verse

G|-------------------------------------------------------------------|
D|-------------------------------------------------------------------|
A|--4-4-4-4-4-4---------------------4-4-4-4-4-4----------------------|
E|--------------4-6-0-0-0-0-0-0-4-6-------------4-6-0-0-0-0-0-0-4-6--|

G|-------------------------------------------------------------------|
D|-------------------------------------------------------------------|
A|--4-4-4-4-4-4---------------------4-4-4-4-4-4-4-4-4-4-4-4-4-4-4-4--|
E|--------------4-6-0-0-0-0-0-0-4-6----------------------------------|

Verse 1

G|-------------------------------------------------------------------|
D|-------------------------------------------------------------------|
A|--4-4-4-4-4-4---------------------4-4-4-4-4-4----------------------|
E|--------------4-6-0-0-0-0-0-0-4-6-------------4-6-0-0-0-0-0-0-4-6--| x 3

G|----------------------------------------------------------------------|
D|----------------------------------------------------------------------|
A|--4-4-4-4-4-4---------------------4-4-4-4-4-4-------------------------|
E|--------------4-6-0-0-0-0-0-0-4-6-------------4-6-0----0----0----0----|

Chorus

G|------------------------------------|
D|------------------------------------|
A|--4-4-4-4-4-4-4---------------------|
E|-------------------0-0-0-0-0-0-0----| x 3

G|-------------------------------|
D|-------------------------------|
A|-------------------------------|
E|-2-2-2-4-4-4-5-5-5-7-7-7-7-7-7-|

Pre-Verse

G|-------------------------------------------------------------------|
D|-------------------------------------------------------------------|
A|--4-4-4-4-4-4---------------------4-4-4-4-4-4----------------------|
E|--------------4-6-0-0-0-0-0-0-4-6-------------4-6-0-0-0-0-0-0-4-6--|

G|-------------------------------------------------------------------|
D|-------------------------------------------------------------------|
A|--4-4-4-4-4-4---------------------4-4-4-4-4-4-4-4-4-4-4-4-4-4-4-4--|
E|--------------4-6-0-0-0-0-0-0-4-6----------------------------------|

Verse 2

G|-------------------------------------------------------------------|
D|-------------------------------------------------------------------|
A|--4-4-4-4-4-4---------------------4-4-4-4-4-4----------------------|
E|--------------4-6-0-0-0-0-0-0-4-6-------------4-6-0-0-0-0-0-0-4-6--| x 3

G|------------------------------------------------------------------------|
D|------------------------------------------------------------------------|
A|--4-4-4-4-4-4---------------------4-4-4-4-4-4---------------------------|
E|--------------4-6-0-0-0-0-0-0-4-6-------------4-6-0----0----0----0----0~|


Chorus

G|-------------------------------------|
D|-------------------------------------|
A|--4-4-4-4-4-4-4----------------------|
E|-------------------0-0-0-0-0-0-0-----| x 3

G|-------------------------------|
D|-------------------------------|
A|-------------------------------|
E|-2-2-2-4-4-4-5-5-5-7-7-7-7-7-7-|

G|------------------------------------|
D|------------------------------------|
A|--4-4-4-4-4-4-4---------------------|
E|-------------------0-0-0-0-0-0-0----| x 3

G|-------------------------------|
D|-------------------------------|
A|-------------------------------|
E|-2-2-2-4-4-4-5-5-5-7-7-7-7-7-7-|

G|-------------------------------|
D|-------------------------------|
A|-------------------------------|
E|-2-2-2-4-4-4-5-5-5-7-7-7-7-7-7-|

G|--------------------|
D|--------------------|
A|--------------------|
E|-2~---4~---5~---7~--|


(Guitar and Drums)

Guitar Riff x 4

Bridge/Solo:
G|-----------------------------------------|
D|-----------------------------------(x4)--|
A|--0-0-0-0-3-2-0-----------3-2-0----------|
E|----------------3-0-0-0-0-------3--------|

G|----------------------------------|
D|----------------------------------|
A|--------------------------------3-|
D|--3-4-5-3-4-5-3-4-5-3-4-5-3-4-5---|


G|----------------------------------------|
D|----------------------------------------|
A|-4-4-4-4-4-4----------------------------|
E|-------------4-6-0-0-0-0-0-0-4-6--------| x 3


Drum Fill

Chorus

G|------------------------------------|
D|------------------------------------|
A|--4-4-4-4-4-4-4---------------------|
E|-------------------0-0-0-0-0-0-0----| x 3

G|-------------------------------|
D|-------------------------------|
A|-------------------------------|
E|-2-2-2-4-4-4-5-5-5-7-7-7-7-7-7-|

G|------------------------------------|
D|------------------------------------|
A|--4-4-4-4-4-4-4---------------------|
E|-------------------0-0-0-0-0-0-0----| x 3

G|-------------------------------|
D|-------------------------------|
A|-------------------------------|
E|-2-2-2-4-4-4-5-5-5-7-7-7-7-7-7-|

G|-------------------------------|
D|-------------------------------|
A|-------------------------------|
E|-2-2-2-4-4-4-5-5-5-7-7-7-7-7-7-|

G|--------------------|
D|--------------------|
A|--------------------|
E|-2~---4~---5~---7~--|
comments
We did not receive enough feedback on this tab! Please rate:
print report bad tab
1 2 3 4 5
2 comments total.
0 reply
bathroom_gnome wrote on February 1 2008, 02:18 pm

nice job, perfect tab far as i can tell :) TLE FTW, yo

0 reply
TLE Bass Player wrote on January 8 2011, 10:45 pm

awesome tab for a awesome song :)

I want to post or [tab]
guest
You may want to rate the tab now too:
select rating
Please do not post tabs as comments. Select "correction" instead!