Oops, an error
Loading. Please wait.

Blinded Tab

version 1
version 1

Whole song

Interactive

526 views 1 this week
no commentswrite comment
1 2 3 4 5
please rate
add to favorites
launch autoscroll
font size
0
reset
how to read this tab
guitar tuner
Autoscroll
slow
fast
+/-
esc
set tempo
stop
Help us to improve Ultimate-Guitar.com Take our survey!
×
Author
Difficulty
intermediate
 
                                    BLINDED

/=slide up
\=slide down
pm=palm muted
p=pull of
h=hammer on


Verse 1: This bit is struck upwards

e-5--5--5--5--5--5--5--5-5--|
b-5--5--5--5--5--5--5--5-5--|
g-5--5--5--5--5--5--5--5-5--| x3
d-7--7--7--7--7--7--7--7-7--|
a-7--7--7--7--7--7--7--7-7--|
e-5--5--5--5--5--5--5--5-5--|


e-----------------------------------|
b-----------------------------------|
g-----------------------------------|
d-----------------------------------|
a--0-7-5-0-7-5-0-7-5-0-7-5-0-7-5----|
e--------------------------------0--|
   pm.............................


e-5--5--5--5--5--5--5--5-5--|
b-5--5--5--5--5--5--5--5-5--|
g-5--5--5--5--5--5--5--5-5--| x2
d-7--7--7--7--7--7--7--7-7--|
a-7--7--7--7--7--7--7--7-7--|
e-5--5--5--5--5--5--5--5-5--|


e----------------------------------|
b----------------------------------|
g----------------------------------|
d-3-3-3-3-3-3-3-3-3-3-3-3-3-3-3-3--|
a-3-3-3-3-3-3-3-3-3-3-3-3-3-3-3-3--|
e-1-1-1-1-1-1-1-1-1-1-1-1-1-1-1-1--|


e-5--5--5--5--5--5--5--5---|
b-5--5--5--5--5--5--5--5---|
g-5--5--5--5--5--5--5--5---| 
d-7--7--7--7--7--7--7--7---|
a-7--7--7--7--7--7--7--7---|
e-5--5--5--5--5--5--5--5---|

e----------------------------------x-x-x-x-|
b----------------------------------x-x-x-x-|
g----------------------------------x-x-x-x-|
d----------------------------------x-x-x-x-|
a--0-7-5-0-7-5-0-7-5-0-7-5-0-7-5-0-x-x-x-x-|
e----------------------------------x-x-x-x-|
   pm.............................


Chorus:

e-----------------------------------------------------0-0-0-0-0-0-0-0--|
b-5-5-5-5-6-6-6-6-6-6-6-6-5-5-5-5----5-5-5-5-6-6-6-6--0-0-0-0-0-0-0-0--|
g-5-5-5-5-5-5-5-5-5-5-5-5-5-5-5-5----5-5-5-5-5-5-5-5--1-1-1-1-1-1-1-1--|
d-5-5-5-5-5-5-5-5-5-5-5-5-5-5-5-5----5-5-5-5-5-5-5-5--2-2-2-2-2-2-2-2--|
a-3-3-3-3-3-3-3-3-3-3-3-3-3-3-3-3----3-3-3-3-3-3-3-3--2-2-2-2-2-2-2-2--|
e-----------------------------------------------------0-0-0-0-0-0-0-0--|


e------------------3---------------------------------------------------------|
b------------------3---------------------------------------------------------|
g------------------4--------------5--5--5-5----------------------------------|
d-3-3-3-3-3-3-3-3--5----------0-2-5--5--5-5--3-3-3-3-3-3-3-3-3-3-3-3-3-3-3---|
a-3-3-3-3-3-3-3-3--5----0-2-3-----3--3--2-2--3-3-3-3-3-3-3-3-3-3-3-3-3-3-3---|
e-1-1-1-1-1-1-1-1--3--3----------------------1-1-1-1-1-1-1-1-1-1-1-1-1-1-1-0-|


e-----------------------------------------------------------|
b-----------------------------------------------------------|
g-----------------------------------------------------------|
d-3--3--3--3--5--5--5--5------------------------------------|
a-3--3--3--3--5--5--5--5---0-2-3-0-3-5-0-5-7-0-3-5-0-2-3-2--|
e-1--1--1--1--3--3--4--4------------------------------------|


Verse 2:

e--0--0--0--0--0--0--0--0--0--0--0--0--0--0--0--0-0--|
b--5--5--5--5--5--5--5--5--5--5--5--5--5--5--5--5-5--|
g----------------------------------------------------|
d----------------------------------------------------|
a----------------------------------------------------|
e----------------------------------------------------|


e----------------------------------|
b----------------------------------|
g----------------------------------|
d-3-3-3-3-3-3-3-3-3-3-3-3-3-3-3-3--|
a-3-3-3-3-3-3-3-3-3-3-3-3-3-3-3-3--|
e-1-1-1-1-1-1-1-1-1-1-1-1-1-1-1-1--|


e--0--0--0--0--0--0--0--0\---|
b--5--5--5--5--5--5--5--5\---|
g----------------------------|
d----------------------------|
a----------------------------|
e----------------------------|


e----------------------------------x-x-x-x-|
b----------------------------------x-x-x-x-|
g----------------------------------x-x-x-x-|
d----------------------------------x-x-x-x-|
a--0-7-5-0-7-5-0-7-5-0-7-5-0-7-5-0-x-x-x-x-|
e----------------------------------x-x-x-x-|
   pm.............................


Chorus

e-----------------------------------------------------0-0-0-0-0-0-0-0--|
b-5-5-5-5-6-6-6-6-6-6-6-6-5-5-5-5----5-5-5-5-6-6-6-6--0-0-0-0-0-0-0-0--|
g-5-5-5-5-5-5-5-5-5-5-5-5-5-5-5-5----5-5-5-5-5-5-5-5--1-1-1-1-1-1-1-1--|
d-5-5-5-5-5-5-5-5-5-5-5-5-5-5-5-5----5-5-5-5-5-5-5-5--2-2-2-2-2-2-2-2--|
a-3-3-3-3-3-3-3-3-3-3-3-3-3-3-3-3----3-3-3-3-3-3-3-3--2-2-2-2-2-2-2-2--|
e-----------------------------------------------------0-0-0-0-0-0-0-0--|


e------------------3---------------------------------------------------------|
b------------------3---------------------------------------------------------|
g------------------4--------------5--5--5-5----------------------------------|
d-3-3-3-3-3-3-3-3--5----------0-2-5--5--5-5--3-3-3-3-3-3-3-3-3-3-3-3-3-3-3---|
a-3-3-3-3-3-3-3-3--5----0-2-3-----3--3--2-2--3-3-3-3-3-3-3-3-3-3-3-3-3-3-3---|
e-1-1-1-1-1-1-1-1--3--3----------------------1-1-1-1-1-1-1-1-1-1-1-1-1-1-1-0-|


e-----------------------------------------------------------|
b-----------------------------------------------------------|
g-----------------------------------------------------------|
d-3--3--3--3--5--5--5--5------------------------------------|
a-3--3--3--3--5--5--5--5---0-2-3-0-3-5-0-5-7-0-3-5-0-2-3-2--|
e-1--1--1--1--3--3--4--4------------------------------------|



e----------------------------------------------------------------|
b----------------------------------------------------------------|
g----------------------------------------------------------------|
d-3--3--3--3--5--5--5--5-----------------------------------------|
a-3--3--3--3--5--5--5--5---0-2-3-0-3-5-0-5-7-0-7-8-10---11---12--|
e-1--1--1--1--3--3--4--4------------------------------0----0-----|


Solo:

e-----------------------------------|
b-----------------------------------|
g-----------------------------------|
d-----------------------------------|
a--0-2-3-0-3-5-0-5-7-0-3-5-0-2-3-2--|
e-----------------------------------|


e-----------0-/5-4-5-0-------------------------------------|
b-----1p0-1-------------/6--5----0----3---1---0h1p0--------|
g---2-----------------------------------------------2p0----|
d-------------------------------------------------------2--|
a-0----------------------------0----0---0------------------|
e----------------------------------------------------------|


e----------------------0----0-3p0---4p0----|
b-----0-----------3------/5-------5-----5--|
g-2-1---1----/5-4---5----------------------|
d---------2--------------------------------|
a------------------------------------------|
e------------------------------------------|


e-----------------------------------|
b-----------------------------------|
g-----------------------------------|
d-----------------------------------| x2
a--0-7-5-0-7-5-0-7-5-0-7-5-0-7-5----|
e--------------------------------0--|
   pm.............................


Verse 3:


e-5--5--5--5--5--5--5--5-5--|
b-5--5--5--5--5--5--5--5-5--|
g-5--5--5--5--5--5--5--5-5--| x2
d-7--7--7--7--7--7--7--7-7--|
a-7--7--7--7--7--7--7--7-7--|
e-5--5--5--5--5--5--5--5-5--|

e-------1-------------------------------------------|
b-------1-------------------------------------------|
g-------2-------------------------------------------|
d-3-3-3-3----3-3-3-3-3-3-3---3-3-3-3-3-3-3-3--5--5\-|
a-3-3-3-3----3-3-3-3-3-3-3---3-3-3-3-3-3-3-3--5--5\-|
e-1-1-1-1----1-1-1-1-1-1-1-0-1-1-1-1-1-1-1-1--3--3\-|


Last Chorus:


e-----------------------------------------------------0-0-0-0-0-0-0-0--|
b-5-5-5-5-6-6-6-6-6-6-6-6-5-5-5-5----5-5-5-5-6-6-6-6--0-0-0-0-0-0-0-0--|
g-5-5-5-5-5-5-5-5-5-5-5-5-5-5-5-5----5-5-5-5-5-5-5-5--1-1-1-1-1-1-1-1--|
d-5-5-5-5-5-5-5-5-5-5-5-5-5-5-5-5----5-5-5-5-5-5-5-5--2-2-2-2-2-2-2-2--|
a-3-3-3-3-3-3-3-3-3-3-3-3-3-3-3-3----3-3-3-3-3-3-3-3--2-2-2-2-2-2-2-2--|
e-----------------------------------------------------0-0-0-0-0-0-0-0--|


e------------------3---------------------------------------------------------|
b------------------3---------------------------------------------------------|
g------------------4--------------5--5--5-5----------------------------------|
d-3-3-3-3-3-3-3-3--5----------0-2-5--5--5-5--3-3-3-3-3-3-3-3-3-3-3-3-3-3-3---|
a-3-3-3-3-3-3-3-3--5----0-2-3-----3--3--2-2--3-3-3-3-3-3-3-3-3-3-3-3-3-3-3---|
e-1-1-1-1-1-1-1-1--3--3----------------------1-1-1-1-1-1-1-1-1-1-1-1-1-1-1-0-|


e-----------------------------------------------------------|
b-----------------------------------------------------------|
g-----------------------------------------------------------|
d-3--3--3--3--5--5--5--5------------------------------------|
a-3--3--3--3--5--5--5--5---0-2-3-0-3-5-0-5-7-0-3-5-0-2-3-2--|
e-1--1--1--1--3--3--4--4------------------------------------|


e-----------------------------------------------------------|
b-----------------------------------------------------------|
g-----------------------------------------------------------|
d-3--3--3--3--5--5--5--5------------------------------------|
a-3--3--3--3--5--5--5--5---0-2-3-0-3-5-0-5-7-0-3-5-0-2-3-2--|
e-1--1--1--1--3--3--4--4------------------------------------|

e-------------------------------------------------------------------------------------------|
b-------------------------------------------------------------------------------------------|
g-------------------------------------------------------------------------------------------|
d-3--3--3--3--5--5--5--5--------------------------------------------------------------------|
a-3--3--3--3--5--5--5--5---0-2-3-0-3-5-0-5-7-0-3-5-0-2-3-2-0-2-3-0-3-5-0-5-7-0-3-5-0-2-3-2--|
e-1--1--1--1--3--3--4--4--------------------------------------------------------------------|


Tabbed by Jason Zarpellon
jason_zarps@hotmail.com
www.thelivingendtabpage.cjb.net
Suggest correction
Give kudos to tab author, rate the tab!
1 2 3 4 5
comments
print report bad tab
guest
You may want to rate the tab now too:
select rating
Please do not post tabs as comments. Select "correction" instead!