Oops, an error
Loading. Please wait.

Bloody Mary Tab

version 2
version 2

Whole song

Interactive

346 views 3 this week
1 commentread comment
1 2 3 4 5
please rate
add to favorites
launch autoscroll
font size
0
reset
how to read this tab
guitar tuner
Autoscroll
slow
fast
+/-
esc
set tempo
stop
Help us to improve Ultimate-Guitar.com Take our survey!
×
Author
Fritz___ 742
                       -The Living End-
                         Bloody Mary

 Tabbed By Mick Fryar-manumick20@yahoo.com 
 and solo by Nathan Smith,tlerock@yahoo.com 
 Visit his top site!-http://alltorndown.cjb.net

^=bend
~=vibrado
h=hammer on
p=pull off
0~=play open string with tremelo arm



Intro:

e--------------------------------------|
b--------------------------------------|
g-0-0----------------------------------|
d-2-2----------------------------------|(x3)
a-2-2-0-0-2-2-1-0-1-1---0--0-0---------| 
e-0-0-----------------3--------3---3-2-|
     / p a l m   m u t e d............\

e-------------------------------0--|
b-------------------------------0--|
g-----------------------------1-0--|
d-2-2---------------------1-2---2--|
a-2-2-0-0-2-2-1-1---0-1-2-------2--|
e-0-0---------------------------0--|
     /palm muted.\
Repeat again



Verse:

e------------------------------------0--|
b------------------------------------0--|
g---------------------------------------|
d-2-2-----------------------------------| (x4)
a-2-2-0-0-2-2-1-0-1-1--0-0-0-0----------|
e-0-0-----------------3--------3-2-0----|
     /p a l m   m u t e d...........\


Chorus: 
          
   Am   F      G#     C
e----0----1----4--------|
b----1----1----4--5--5--|
g--2-2----2----5--5--5--|
d--2-2--3-3--6-6--5--5--|(x2)
a--0-0--3-3--6-6--3--3--|
e-------1-1--4-4--------|

  Am                        C
e-5-5-5-5-5-5-5-5-5-5-5-------------------------------|
b-5-5-5-5-5-5-5-5-5-5-5-0-1-5-5-5-5-5-5-5-5-5-5-5-5-5-|
g-5-5-5-5-5-5-5-5-5-5-5-----5-5-5-5-5-5-5-5-5-5-5-5-5-|
d-7-7-7-7-7-7-7-7-7-7-7-----5-5-5-5-5-5-5-5-5-5-5-5-5-|
a-7-7-7-7-7-7-7-7-7-7-7-----3-3-3-3-3-3-3-3-3-3-3-3-3-|
e-5-5-5-5-5-5-5-5-5-5-5-------------------------------|


Then back to intro but play this many times:

e--------------------------------------|
b--------------------------------------|
g-0-0----------------------------------|
d-2-2----------------------------------|
a-2-2-0-0-2-2-1-0-1-1---0--0-0---------| 
e-0-0-----------------3--------3---3-2-|
     /p a l m    m u t e d............\

e-------------------------------0--|
b-------------------------------0--|
g-----------------------------1-0--|
d-2-2---------------------1-2---2--|
a-2-2-0-0-2-2-1-1---0-1-2-------2--|
e-0-0---------------------------0--|
     /palm muted.\
Verse

Chorus      


Pre Solo:

   G   D  D#  F
e----------------|
b----------------|
g--12--7--8--10--|
d--12--7--8--10--|(x3)
a--10--5--6--8---|
e----------------|
                   
                   Em
e------------------0-|
b-1-0-1---------4--0-|
g-------2-----4----0-|
d-----------4------2-|
a---------2--------2-|
e------------------0-|

e--------------------------------------|
b--------------------------------------|
g-0-0----------------------------------|
d-2-2----------------------------------| 
a-2-2-0-0-2-2-1-0-1-1---0--0-0---------|
e-0-0-----------------3--------3---3-2-|
     / p a l m    m u t e d...........\    

e-------------------------|
b-------------------------|
g-0-0---------------------|
d-2-2---------------------| 
a-2-2-0-0-2-2-1-0---------|
e-0-0---------------0~-0~-|
     /palm muted.\



Solo: 

e------------------------------------|                                       
b------------------------------------|                                       
g-------------------------10^11-7-7--|                                  
d-10^11-10-10^11-10h12p10------------|   
a------------------------------------|                                       
e------------------------------------|


e----------------------------------|                                       
b----------------------------------|                                       
g-7-5-7----------------------------|                                  
d-------5^--5-3--------------------|   
a---------------5-??????-----------|                                       
e------------------------3-2-1~~---|

e-------------------------------------11-10-11--|
b----------------------------13-15-13-----------|
g----------------------------12-----------------|
d-------6-5-3--10-13-12-10-8--------------------|
a-3-5-6-----------------------------------------|
e-----------------------------------------------|

e-13^15--13-13-15-13----13^15~~~--------10-9----------|
b--------------------15--------------11----------3-2^-|
g---------------------------------12-----------3------|
d--------------------------------------------5--------|
a-----------------------------------------------------|
e-----------------------------------------------------|

e-0h-3-2----------------------------------------|
b--------3p2p0----------------------------------|
g--------------4p2p0-2-0------------------------|
d------------------------4-5-0-2p0--------------|
a----------------------------------4p2p0--------|
e----------------------------------------3p2p0--|

e-------------------------------------|
b-------------------------------------|
g-7-7-7-6-6-6-6h7-7-7-7-8-8-8-8p7-----|
d-7-7-7-6-6-6-6h7-7-7-7-8-8-8-8p7-----|
a-5---------------5-------------------|
e-------------------------------------|

e----10---------10----------10-------------------|
b-10----10-9-10----10-11-10----10-9--------------|
g-----------------------------------11-11-11-----|
d-----------------------------------11-11-11-ect-|
a-----------------------------------9--9--9------|
e------------------------------------------------|


Verse *key change*:

    G
e----------------------------------|
b----------------------------------|
g----------------------------------|
d-5-5------------------------------|
a-5-5-3-4-5-5-4---4-4-3---3-3------|
e-3-3-----------6-------6-----6-3--|

  G
e----------------------------------3-3--|
b----------------------------------3-3--|
g----------------------------------4-4--|
d-5-5------------------------------5-5--|
a-5-5-3-4-5-5-4---4-4-3---3-3------5-5--|
e-3-3-----------6-------6-----6-3--3-3--|

Brief Pause

  G 
e----------------------------------3-3--|
b----------------------------------3-3--|
g----------------------------------4-4--|
d-5-5------------------------------5-5--|
a-5-5-3-4-5-5-4---4-4-3---3-3------5-5--|
e-3-3-----------6-------6-----6-3--3-3--|

Brief Pause

  G               E
e-3-3------------------------------|
b-3-3------------------------------|
g-4-4-------------9-9-9-9-9-9-9-9--|
d-5-5-------------9-9-9-9-9-9-9-9--|
a-5-5-3-4-5-5-4---7-7-7-7-7-7-7-7--|
e-3-3-----------6------------------|

 
Chorus


Outro:

   G   D  D#  F
e----------------|
b----------------|
g--12--7--8--10--|
d--12--7--8--10--|(x3)
a--10--5--6--8---|
e----------------|

  D
e-----------------5-|
b---------------7---|
g-7-7-7-7-7---7-----|
d-7-7-7-7-7-7-------|
a-5-5-5-5-5---------|
e-------------------|

   G   D  D#  F
e----------------|
b----------------|
g--12--7--8--10--|
d--12--7--8--10--|(x3)
a--10--5--6--8---|
e----------------|
                
                   Em
e------------------0-|
b-1-0-1---------4--0-|
g-------2-----4----0-|
d-----------4------2-|
a---------2--------2-|
e------------------0-|

e---0-----0-------|
b-3---3-2---2-1---|
g-----------------|
d-----------------|
a-----------------|
e-----------------|


Suggest correction new What's this?
You can suggest a correction to this tab. Community and Mods will review your correction and vote to approve or reject it.
comments
We did not receive enough feedback on this tab! Please rate:
print report bad tab
1 2 3 4 5
1 comment total.
0 reply
moonpie 510 wrote on April 24 2007, 01:40 am

This is an alright tab....but just have a look at the version 1 of this song.....that's a little more accurate.....

guest
You may want to rate the tab now too:
select rating
Please do not post tabs as comments. Select "correction" instead!