Oops, an error
Loading. Please wait.

Bloody Mary Tab

version 3
version 3

Whole song

Interactive

866 views 1 this week
no commentswrite comment
1 2 3 4 5
2 more votes to show rating
add to favorites
launch autoscroll
font size
0
reset
how to read this tab
guitar tuner
Autoscroll
slow
fast
+/-
esc
set tempo
stop
Help us to improve Ultimate-Guitar.com Take our survey!
×
Author
Bloody Mary by the liiiiiving end
By Stogey

           3x                                           .....B7.....           

    
E---0-0------------------------------|---------------------------2-2--0-|
B---0-0------------------------------|---------------------------0-0--0-|
G---0-0------------------------------|-------------------------2------0-|
D---2-2------------------------------|-----------------------1--------2-|
A---2-2---1-2-2-1---1-1-0---0-0------|-------1-2-2-1---0-1-2----------2-|
E---0-0-3---------3-------3-----3-0--|-0-0-3---------3----------------0-|
        .........Palm Muted........                              Upstrum Em

          3x
E--------------------------------------------------------------------|
B--------------------------------------------------------------------|
G--------------------------------------------------------------------|
D--------------------------------------------------------------------|
A-------1-2-2-1---1-1-0---0-0-------------1-2-2-1---1-1-0---0--------|
E---0-3---------3-------3-----3-2---0-0-3---------3-------3---3-2-1--|


E-----------------------------2-2--0---------|
B-----------------------------0-0--0---------|
G---------------------------2------0---------|
D-------------------------1--------2---------|
A---------1-2-2-1---0-1-2----------2---------|
E---0-0-3---------3----------------0---------|
                                  Upstrum Em 

         3x
E------------------------------------|----------------------------------|
B------------------------------------|-------------------------1p0------|
G------------------------------------|-----------------------------0----|
D------------------------------------|-------------------------------0--|
A---------1-2-2-1---1-1-0---0-0------|---------1-2-2-1---1-1-0----------|
E---0-0-3---------3-------3-----3-2--|---0-0-3---------3----------------|
    .........Palm Muted............      ........P.M..........

     Am      F      G#    C   2x    Am    Cm/G
E---0-0-0--1-1-1--4-4-4--0-0-----|---0------3-------------|
B---1-1-1--1-1-1--4-4-4--1-1-----|---1------4-------------|
G---2-2-2--2-2-2--5-5-5--0-0-0---|---2------5-------------|
D---2-2-2--3-3-3--6-6-6--2-2-0---|---2------5-------------|
A---0-0-0--3-3-3--6-6-6--3-3-2---|---0------3-------------|
E---0-0-0--1-1-1--4-4-4--0-0-----|---0------3-------------|
Listen for strum pattern          Listen to the song to see how many 
                                               times u play each of these

E-----------------------------------|----------------------------2-2--0-|
B-----------------------------------|----------------------------0-0--0-|
G-----------------------------------|--------------------------2------0-|
D-----------------------------------|------------------------1--------2-|
A--------1-2-2-1---1-1-0---0-0------|--------1-2-2-1---0-1-2----------2-|
E--0-0-3---------3-------3-----3-2--|--0-0-3---------3----------------0-|
                                                                   Upstrum

         3x
E------------------------------------|------------------------------------|
B------------------------------------|------------------------------------|
G------------------------------------|------------------------------------|
D------------------------------------|------------------------------------|
A---------1-2-2-1---1-1-0---0-0------|---------1-2-2-1---1-1-0---0--------|
E---0-0-3---------3-------3-----3-2--|---0-0-3---------3-------3---3-2-1--|
    .............P.M...............      ..............P.M..............

     Am      F      G#    C   2x    Am    Cm/G
E---0-0-0--1-1-1--4-4-4--0-0-----|---0------3-------------|
B---1-1-1--1-1-1--4-4-4--1-1-----|---1------4-------------|
G---2-2-2--2-2-2--5-5-5--0-0-0---|---2------5-------------|
D---2-2-2--3-3-3--6-6-6--2-2-0---|---2------5-------------|
A---0-0-0--3-3-3--6-6-6--3-3-2---|---0------3-------------|
E---0-0-0--1-1-1--4-4-4--0-0-----|---0------3-------------|

   G   D  D# F  3x
E-----------------|--3------------------0-----------|
B-----------------|--4-3------------4---0-----------|
G--12--7--8--10---|--5---5--------2-----0-----------|
D--12--7--8--10---|--5-----5----4-------2-----------|
A--10--5--6--8----|--3--------2---------2-----------|
E-----------------|---------------------0-----------|
                                     Upstrum

E------------------------------------------------------------------|
B------------------------------------------------------------------|
G------------------------------------------------------------------|
D------------------------------------------------------------------|
A--------1-2-2-1---1-1-0---0-0------------1-2-2-1------------------|
E--0-0-3---------3-------3-----3-2--0-0-3---------3--(0-0)---------|
                                                     (Use whammy bar)
Solo:
E-------------------------------------------------------|
B-------5^--5^--5^v--3--5--5^v--3--5--3-----------------|
G-----3-5^--5^--5^v--3--5--5^v--3--5--3-5p3-5-3---------|
D--s5---------------------------------------------------|
A-------------------------------------------------------|
E-------------------------------------------------------|


E-----------------------------------------------------------|
B-----------------------------------------------------------|
G--------------------------------------------------8-8------|
D--5p3---3------------------------0-1-3s6-5-3------8-8s7~---|
A------5---5-4-3s1-3p1---------s3--------------s10----------|
E----------------------3-2-1--------------------------------|
  ......Real fast bit.......

E-------8-10-8-11-10-11-11^--11^--13^v--10--13^-----------------|
B-------8-8--8-8--8--8------------------------------------------|
G--3s8--8-8-----------------------------------------------------|
D---------------------------------------------------------------|
A---------------------------------------------------------------|
E---------------------------------------------------------------|


E---------10--9--------------6p5p3-------------------------------------------|
B------11-----11--------6-5--------6p5p3-------6p5p3-------------------------|
G--s12----------------3---3--------------6p5p3-------5p3p0-------5p3p0-------|
D------------------s5--------------------------------------5p3p0-------5p3p0-|
A----------------------------------------------------------------------------|
E----------------------------------------------------------------------------|
If you got a tremolo arm use it!

              3x                                       F#
E--0-----0-----0-----0-----0-----0--|--0-----0-----0-----------|
B--3-----3-----3-----3-----3-----3--|--3-----3-----3---11------|
G--2-----1-----1-----2-----3-----3--|--2-----1-----1---11------|
D----0-0---0-0---0-0---0-0---0-0----|----0-0---0-0-----11------|
A-----------------------------------|------------------9-------|
E-----------------------------------|--------------------------|
Listen for strum pattern

                                           3x                         Gm
E----------------------------------|----------------------------------3-3----|
B----------------------------------|----------------------------------3-3----|
G----------------------------------|----------------------------------3-3----|
D----------------------------------|----------------------------------5-5----|
A--------4-5-5-4---4-4-3---3-3-----|-------4-5-5-4---4-4-3---3-3------5-5----|
E--3-3-6---------6-------6-----6-3-|-3-3-6---------6-------6-----6-3--3-3----|

2nd time play an E minor at the end


     Am      F      G#    C   2x    Am    Cm/G
E---0-0-0--1-1-1--4-4-4--0-0-----|---0------3-------------|
B---1-1-1--1-1-1--4-4-4--1-1-----|---1------4-------------|
G---2-2-2--2-2-2--5-5-5--0-0-0---|---2------5-------------|
D---2-2-2--3-3-3--6-6-6--2-2-0---|---2------5-------------|
A---0-0-0--3-3-3--6-6-6--3-3-2---|---0------3-------------|
E---0-0-0--1-1-1--4-4-4--0-0-----|---0------3-------------|



    3x                                 3x
E----------------|--------------2--|----------------|--3----------------0---|
B----------------|------------4----|----------------|--4-3-----------4--0---|
G--12--7--8--10--|----------2------|--12--7--8--10--|--5---5-------2----0---|
D--12--7--8--10--|--0-0-2-3--------|--12--7--8--10--|--5-----5---4------2---|
A--10--5--6--8---|-----------------|--10--5--6--8---|--3-------2--------2---|
E----------------|-----------------|----------------|-------------------0---|
                                                                     Upstrum

     3x
E----------------|--3------------------0-----------|
B----------------|--4-3------------4---0-----------|
G--12--7--8--10--|--5---5--------2-----0-----------|
D--12--7--8--10--|--5-----5----4-------2-----------|
A--10--5--6--8---|--3--------2---------2-----------|
E----------------|---------------------0-----------|
                                     Upstrum
Suggest correction
Give kudos to tab author, rate the tab!
1 2 3 4 5
comments
print report bad tab
guest
You may want to rate the tab now too:
select rating
Wanna post a correction for this tab? Suggest correction