Oops, an error
Loading. Please wait.

Carry Me Home Bass Tab

version 1
version 1

Whole song

Interactive

1,577 views 3 this week
no commentswrite comment
1 2 3 4 5
please rate
add to favorites
launch autoscroll
font size
0
reset
guitar tuner
Tab Pro tools
  • play this tab
  • loop segment
  • change instrument
  • show fretboard
  • metronome
×
Best way to learn
"Carry Me Home"
Autoscroll
slow
fast
+/-
esc
set tempo
stop
Contributor
Difficulty
intermediate
"Carry Me Home"
Artist: The Living End
Album: Roll On
Bassit: Scott Owen (upright Bass)
This my First Tab so I Hope you like it
Note:Scott Owen uses an Upright Bass (a String bass) so there might be a difference in tone.

opening:pt 1        op
G------------------------------------------------------|
D------------------------------------------------------|
A--5----------------(8)5-------------------------------| x2
E------------------------------------------------------|
(count 1 2 3 4 1 2 3 4    1 2 3 4 1 2 3 4)

op pt 2

G------------------------------------------------------|
D------------------------------------------------------|
A-5(p)---------5(p)--3--5(p)--3--5(p)--3--5(p)-3-5-----|(p)
E------------------------------------------------------|
       1 2 3 4
G------------------------------------|
D------------------------------------|
A--5-5-5-3-5-------------------------| x4
E------------------------------------|
   1 2 3 4 a

Verse  op   op
G-----(7)--(7)---------------------------------------|
D----------------------------------------------------|
A--555555555555-5-3--5-------------------------- X 4-|
E----------------------------------------------------|
 He's gonna get you in the end...

chorus1
G----------------------------------------------------|
D----------------------------------------------------|
A----------------------------------------------------|
E--3333000077777777------(55555555-on-2nd-time-only)-|
   step right up and be a man....
  Build up to Chorus 2
G-------------------------------------------|
D---------------------------------------X 3-|
A--6-6-6-8-5------(12-12-12-12-12-12-12--3--|rd time only)
E-------------------------------------------|
   1 2 3 4 a       1  2  3  1  2  3  4 (fast)

chorus2 pt1
G-------------------------------------------|
D-----3-5-----3-5---3-5-6h5h3---------------|
A---55------55----55------------------------| X 2
E-------------------------------------------|
    1a23    1a23  1a2a   3a4a
pick me up from my knees.....
carry me home!

ch2 pt2
G----------------------------|
D----------------------------|
A----1-3---1-3----1-3-4h3h1--|
E--33----33-----33-----------|
pick me up from my knees! carry me home!

bridge
G------------------------------------|
D------------------------------------|X4
A-----------(7h6)--------------------|
E--5556665-5--------(999999-4--------|th time only)
   12a34a1 2         12a3a4
   we think you should know...
  bridge to verse riff
G---------------------------|
D---------------------------|
A------------3r-------------|
E--10r--5430p---------------|

Guitar Solo
G----------------------------------------------------------------------|
D----------------------------------------------------------------------|
A--5h6-777777777777777777777-7h8-99999999999999991010101010101010(<-10-|s)
E----------------------------------------------------------------------|
   (play fast in 8 count)

G---------------------------------|
D---------------------------------|
A-12121212121212121212121212121212(<-12's)
E---------------------------------

chorus1 alternate
G----------------------------------------|
D----------------------------------------|
A------------------------------- X 2-----|
E-3r--0r--7r--------(5-5-5-5-55555555--2-|nd time only)
  1 2 3 4 1 2 3 4    1 2 3 4 12345678
  step right up and be a man...
outro
G------------------------|
D------------------------|
A---------------5r-------|
E--8r--543000p-----------|
   12  34a12a3a4a

Key:
X # = repeat number
r   = let ring
h   = hammer on
p   = pause

order
opening pt1
opening pt2
verse
chorus1
verse
build up to chorus2
chorus2
Bridge
bridge to verse riff
verse
chorus1 alternate
chorus2
outro

thanks for trying my tab! if you have questions,comments,mistakes e-mail me
zake369@hotmail.com
note: I DONT take HATE MAIL SO DONT SEND IT
comments
We did not receive enough feedback on this tab! Please rate:
print report bad tab
1 2 3 4 5
I want to post or [tab]
guest
You may want to rate the tab now too:
select rating
Please do not post tabs as comments. Select "correction" instead!