Oops, an error
Loading. Please wait.

Carry Me Home Bass Tab

version 2
version 2

Whole song

Interactive

405 views 1 this week
no commentswrite comment
1 2 3 4 5
3 more votes to show rating
add to favorites
launch autoscroll
font size
0
reset
guitar tuner
Autoscroll
slow
fast
+/-
esc
set tempo
stop
Help us to improve Ultimate-Guitar.com Take our survey!
×
Difficulty
Tuning
intermediate
D A D G B E
Intro:
g-----------------------------------------------------------------|
d-----------------------------------------------------------------|
a---------------------------------------3-5----3-5----3-5----3-5--|
D-0------0-----3-0-----0-----0------0-----------------------------|


g-------------------------------------------------------------------------|
d-------------------------------------------------------------------------|
a--5-5-5-5-5-5-5-3---5-5-5-5-5-5-5-3---5-5-5-5-5-5-5-3---5-5-5-5-5-5-5-3--|
D-------------------------------------------------------------------------|


Verse:
g----------------------------|
d----------------------------|
a-5-5-5-5-5-5-5-5-5-5-5-5-3--|(x4)
D----------------------------|


g---------------------------------------------------------|
d---------------------------------------------------------|
a-----------------2-2-2-2-2-2-2-2--(x2)---0-0-0-0-0-0-0---|
D-5-5-5-5-2-2-2-2-----------------------------------------|


g----------------------------|
d----------------------------|
a-5-5-5-5-5-5-5-5-5-5-5-5-3--|(x4)
D----------------------------|


g--------------------------------------------------|
d--------------------------------------------------|
a------------------------------------0-0-0--0-0-0--|
D-1-1-1-3-0---1-1-1-3-0---1-1-1-3-0----------------|


Chorus:
g------------------------------------------------------------------------------------------------|
d------------------------------------------------------------------------------------------------|
a------------------------------------------------------------------------------------------------|
D-0-3-5--0-3-5--0-3-5-6-5-3-5---0-3-5--0-3-5--0-3-5-6-5-3-5---5-8-10--5-8-10
--5-8-10-11-10-8-10--|


g--------------------------------:---------------------------------------|
d--------------------------------:--------------------0-2-3-2-0----------|
a--------------------------------:---0-0-0-1-1-1-0-0------------1--(x4)--|
D-0-3-5--0-3-5--0-3-5-6-5-3-5----:---------------------------------------|


Fill Into Next Verse:
g------------------------------|
d--8-------5-------------------|
a---------------------------5--|
D------------------7-5-3-0-----|

Verse

Solo:
g------------------------------------------------------------------------------------------|
d------------------------------------------------------------------------------------------|
a--5-5-5-5-5-5-5-5 ect--8-8-8-8-8-8-ect----------------------------------------------------|
D-----------------------------------------3-3-3-3-3-3-3ect--5-5-5-5-5ect-7-7-7-7-7-7-7-ect-|


g---------------------------------------------------------------|
d---------------------------------------------------------------|
a-------------------------2------------------------2-------0----|
D-5---------------2---------------5--------2--------------------|
 Step right up.....


Chorus

Outro:
g----------------------------------|
d-8--------5-----------------------|
a----------------------------------|
D-------------7--5--3--0-0------0--|

Suggest correction
Give kudos to tab author, rate the tab!
1 2 3 4 5
comments
print report bad tab
guest
You may want to rate the tab now too:
select rating
Wanna post a correction for this tab? Suggest correction