Oops, an error
Loading. Please wait.

Dont Shut The Gate Tab

version 2
version 2

Whole song

Interactive

236 views 1 this week
no commentswrite comment
1 2 3 4 5
please rate
add to favorites
launch autoscroll
font size
0
reset
how to read this tab
guitar tuner
Autoscroll
slow
fast
+/-
esc
set tempo
stop
Help us to improve Ultimate-Guitar.com Take our survey!
×
Intro:

E-----------------------------|
B-----------------------------|
G-----------------------------|
D-------------------2---------|
A-------0h2p0-----0—(x4)------|
E--0-3----------3-------------|

E------------------------------------------------------------------------------------------------------------|
B------------------------------------------------------------------------------------------------------------|
G------------------------------------------------- 7---------------------------------------------------------|
D---------------------2---------------------------5----(x5)-------------------- -2---------------------------|
A--------0h2p0----0----- 8---7---5--7--5---------------------0h2p0------0-- -8--7--8--7--(x1)-1p0------------|(x8)
E--0-3------------3--------6---5---3--5--3---------------0-3-------------3-------6--5--6--5---------------3--|

Verse 1:
(x3)
E------------  ------------  ------- -------|---------------------------------------|
B------------------ -------  ----------   --|---------------------------------------|
G--4------------------------ ----- -------|--4---------- 5--------------------------|
D--------(x5)------------- ---- 2--(x2)- --|-------(x5)--  5--- ------- 2-3-4-------|
A-----2-------- ----0h2p0----0--- ---  - |-----2------- 3- 5-5-6-6-0-1-2------------|
E---------------0-3-- ------3----  -------|-----------------3-3-4-4-----------------|

Chorus:

E-----------------------------------------------------------------------------|
B-----------------------------------------------------------------------------|
G-5555----------------------------------------------------7--5555-------------|
D-5555-5555-4444-3333-----------------2--------------5--5555-5555-4444-3333---|
A-3333-5555-4444-3333-------0h2p0---0--8-7-5-7-5----3333-5555-4444-3333-------|
E--------3333-2222-1111--0-3---------3----6-5-3-5-3-----------3333-2222-1111--|

Pre Verse:

E-----------------------------------------|
B-----------------------------------------|
G-------------------------8b---8----------|
D-----------------------------8---8-------|
A----------0-0---0-(x3)--------------5----|
E-0-0-3-3-----3---------------------3-----|

Verse 2:
(x2)
E-----------------------------------------|------------------------------------|
B---------------------------------------- |------------------------------------|
G--4-------------------- --------------- -|--4-----------5---------------------|
D---------(x5)----------------------------|--------(x5)-- 5---------- 2-3-4----|
A-----2------  ------- -----0-0---0-(x2)- |-----2--------3-5-5-6-6-0-1-2-------|
E----------------0-0-3-3-------3--------|-----------------3-3-4-4--------------|
                                                                    P.M......

Chorus:

E-----------------------------------------------------------------------------|
B-----------------------------------------------------------------------------|
G-5555----------------------------------------------------7--5555-------------|
D-5555-5555-4444-3333-----------------2--------------5--5555-5555-4444-3333---|
A-3333-5555-4444-3333-------0h2p0---0--8-7-5-7-5----3333-5555-4444-3333-------|
E--------3333-2222-1111--0-3---------3----6-5-3-5-3-----------3333-2222-1111--|

Solo:

E-----------------------------------------------------------------------------------------------|
B------------------------------------------------------------------------------------------6-5--|
G------------------------------------------------------------------------------7-6---6-5--------|
D--2---3---4---5---6-----------------------------------------5---7-7-5-7-8-----7----------------|
A----0---0---0---0-------------0-0---0-1-1-0---0---5-6-7----7-----------------------------------|
E----------------------0-0-3-0------3----------3------------------------------------------------|

E--3p0-0-0--5p0-0-0—6p0-0-0—5p0-0-0----------------------------------------------------|
B-------------------------------------------------------11--10-------------------------|
G-------------------------------------------------------10-- 9---(12)b-----------------|
D----------------------------------------------------- - 11-  10-----------------------|
A--------------------------------------------------------------------------------------|
E-------------------------------------------------6p0-------------------0-6-5-0-5-0-3--|

(x6)
E----------------------------|----------------------------------------------------------|
B--------------------------- |--17v--17-14-----14---------------------------------------|
G--------------------------- |----------------16-----16-14------------------------------|
D-------------------2-   ---- |--------------------------------16-----------------------|
A-------0h2p0-----0---- ---|-------------------------------------0-7-0-6-0-5-0-4-0h3p0--|
E--0-3----------3-----------|-----------------------------------------------------------|

Outro:

E---------------------------- -------|
B---------------------------- -------|
G-5555-------------------------------|
D-5555-5555-4444-3-------------------|
A-3333-5555-4444-3-------------------|
E--------3333-2222-1-----------------|

E------------------------------------------------------------------------------------------------------------|
B------------------------------------------------------------------------------------------------------------|
G------------------------------------------------- 7---------------------------------------------------------|
D---------------------2---------------------------5----(x8)-------------------- -2---------------------------|
A--------0h2p0----0----- 8---7---5--7--5---------------------0h2p0------0-- -8--7--8--7--(x1)-1p0------------|(x8)
E--0-3------------3--------6---5---3--5--3---------------0-3-------------3-------6--5--6--5---------------3--|

E---------------------------------------------|
B---------------------------------------------|
G---------------------------------------------|
D--2---------------2--------------------------|
A--2-(let ring)----2--------------------------|
E--0--------------- 0-------------------------|
Suggest correction
What's this?
You can suggest a correction to this tab. Community and Mods will review your correction and vote to approve or reject it.
comments
We did not receive enough feedback on this tab! Please rate:
print report bad tab
1 2 3 4 5
guest
You may want to rate the tab now too:
select rating
Please do not post tabs as comments. Select "correction" instead!