Oops, an error
Loading. Please wait.

Down To The Wire Tab

367 views 1 this week
1 commentread comment
1 2 3 4 5
please rate
add to favorites
launch autoscroll
font size
0
reset
how to read this tab
guitar tuner
Autoscroll
slow
fast
+/-
esc
set tempo
stop
Help us to improve Ultimate-Guitar.com Take our survey!
×
Down To The Wire - The Living End

tabbed By: Matt Heal
email : mattheal @ gmail.com
for more tabs by the living end check out http://tletabs.webs.com/index.htm

intro / verse Gtr1
e|-0--3--1--0-|
b|-1--3--1--1-|
g|-2--0--2--2-| x as needed
d|-2--0--3--2-|
a|-0--2--3--0-|
E|----3--1----|

verse Gtr2:
e|----------------------------------------------------------|
b|----------------------------------------------------------|
g|----------------------------------------------------------|
d|----------------------------------------------------------|
a|-7777777777777777---5555555555555555--3333333333333333----|
E|-5555555555555555---3333333333333333--1111111111111111----|
pm **************** **************** ****************

Pre Chorus:
e|--------------3tr--------------3tr-------------3tr\8tr------------|
b|----------1tr--------------1tr-------------1tr--------------------|
g|--2tr-4tr----------2tr-4tr---------2tr-4tr------------------------|
d|------------------------------------------------------------------|
a|------------------------------------------------------------------|
E|------------------------------------------------------------------|

Chorus
(Down To The Wire....)
e|--------------------------|
b|-9999999999--9999999999---|
g|-9999999999--9999999999---|
d|-7777777777--9999999999---| x 2
a|-0000000000--7777777777---|
E|--------------------------|

(If you Get To Close....)
e|-------------5-------|
b|-1010101010--5----5--|
g|-1010101010--5--5----| x 2
d|-1010101010--7-7-----|
a|-8-8-8-8-8---7-------|
E|-------------5-------|


e|-------------------------|
b|-10101010101010----------|
g|-10101010101010----------|
d|-10101010101010---10-9---|
a|-8-8-8-8-8-8-8----10-9---|
E|------------------8--7---|

verse Gtr1
e|-0--3--1--0-|
b|-1--3--1--1-|
g|-2--0--2--2-| x as needed
d|-2--0--3--2-|
a|-0--2--3--0-|
E|----3--1----|


verse Gtr2:
e|----------------------------------------------------------|
b|----------------------------------------------------------|
g|----------------------------------------------------------|
d|----------------------------------------------------------|
a|-7777777777777777---5555555555555555--3333333333333333----|
E|-5555555555555555---3333333333333333--1111111111111111----|
pm **************** **************** ****************

Chorus
(Down To The Wire....)
e|--------------------------|
b|-9999999999--9999999999---|
g|-9999999999--9999999999---| x 2
d|-7777777777--9999999999---|
a|-0000000000--7777777777---|
E|--------------------------|

(If you Get To Close....)
e|-------------5-------|
b|-1010101010--5----5--| 
g|-1010101010--5--5----| x2
d|-1010101010--7-7-----|
a|-8-8-8-8-8---7-------|
E|-------------5-------|


e|-------------------------|
b|-10101010101010----------|
g|-10101010101010----------|
d|-10101010101010---10-9---|
a|-8-8-8-8-8-8-8----10-9---|
E|------------------8--7---|

pre solo

(just play around with this chord)
e|----------|
b|----------|
g|----------|
d|-7-7-7----|
a|-x-x-x----|
E|-5-5-5----|

Solo (not Complete yet)
e|--12tr-------------12tr------------12tr-------15tr------------15tr------------15tr---------|
b|--------13tr-----------13tr------------13tr-------15tr------------15tr--------------15tr---|
g|-------------14tr-----------14tr-----------------------16tr-------------16tr---------------|
d|-------------------------------------------------------------------------------------------|
a|-------------------------------------------------------------------------------------------|
E|-------------------------------------------------------------------------------------------|


e|---17tr---------12-------12-------12-----10------10---------------|
b|---17tr------10----13-10----13-10------8----12-8----12-8----------|
g|------------------------------------------------------------------|
d|------------------------------------------------------------------|
a|------------------------------------------------------------------|
E|------------------------------------------------------------------|


Chorus
(Down To The Wire....)
e|--------------------------------|
b|--------------------------------|
g|---------------9-9-9-9-9-9-9----|
d|-7-7-7-7-7-7---x-x-x-x-x-x-x----| x2 
a|-x-x-x-x-x-x---7-7-7-7-7-7-7----|
E|-5-5-5-5-5-5--------------------|

(If you Get To Close....)
e|-------------5-------|
b|-1010101010--5----5--|
g|-1010101010--5--5----|
d|-1010101010--7-7-----|x 2
a|-8-8-8-8-8---7-------|
E|-------------5-------|


e|---------------------------------------|
b|-10101010101010--12121212121212--------|
g|-10101010101010--12121212121212--------|
d|-10101010101010--12121212121212--10-9--|
a|-8-8-8-8-8-8-8---10101010101010--10-9--|
E|---------------------------------8--7--|

Outro

e|-0--3--1--0-|
b|-1--3--1--1-|
g|-2--0--2--2-| x as needed
d|-2--0--3--2-|
a|-0--2--3--0-|
E|----3--1----|

Suggest correction
Give kudos to tab author, rate the tab!
1 2 3 4 5
comments
print report bad tab
1 comment total.
0 reply
Oldmonkeys 581 wrote on November 20 2008, 12:14 am

1 star cos you ****ing stole my tab from the TLE forums *******!

guest
You may want to rate the tab now too:
select rating
Wanna post a correction for this tab? Suggest correction