Oops, an error
Loading. Please wait.

End Of The World Tab

version 2
version 2

Whole song

Interactive

2,456 views 1 this week
2 commentsread comments
1 2 3 4 5
please rate
add to favorites
launch autoscroll
font size
0
reset
how to read this tab
guitar tuner
Tab Pro tools
  • play this tab
  • loop segment
  • change instrument
  • show fretboard
  • metronome
×
Best way to learn
"End Of The World"
Autoscroll
slow
fast
+/-
esc
set tempo
stop
Contributor
Difficulty
intermediate
Artist- The Living End
Song- End Of The World


Intro:
e-----------------------|-----------------|-------|
A---------7--------5----|----7-------5----|----/--|
D----------7--------6---|-----7-------6---|-O-/-O-|
G-----------7--------5--|------7-------5--|--/----|
B----5------------------|-----------------|-/-----|
E--6--7---------6-------|-7-------6-------|-------|
Bm7               Go7      Bm7      Go7    Bm7 Go7

                   verse
e--2h3p2----------|----------------|-------|-------|-------|-------|-------|
A--------5-3-2----|----------------|----/--|----/--|----/--|----/--|----/--|
D-----------------|O(repeat)(4)----|-O-/-O-|-O-/-O-|-O-/-O-|-O-/-O-|-O-/-O-|
G-----------------|O(repeat)---Bm--|--/----|--/----|--/----|--/----|--/----|
B--BM7------------|----------------|-/-----|-/-----|-/-----|-/-----|-/-----|
E-----------------|----------------|-------|-------|-------|-------|-------|
                                _________________________________
                               1                                 |
e----------|--------------|-------|-------|-------|-------|--------| |
A----------|--------------|-------|-------|-------|-------|--------| |
D---Bm-----|-Bm-----------|---Em--|---Bm--|---F#--|--Bm---|--Bm----|O|
G----------|--------------|-------|-------|-------|-------|--------|O|
B----------|----2-0-------|-------|-------|-------|-------|--------| |
E----------|--------3-2---|-0-----|-------|-------|-------|--------| |
   _________________
2 3                 |      Chorus
e----------|------------||-------||-------|-------|-------|---------|
A----------|------------||-------||-------|-------|-------|---------|
D-F#--G--A-|--Bm (stop)-||--Bm---||--Bm---|---A---|---A---|---Bm---O|
G-//--/--/-|------------||-------||-------|-------|-------|--------O|
B----------|------------||-------||-------|-------|-------|---------|
E----------|------------||-------||-------|-------|-------|---------|


e---------|--------|--------|---------|---------|----------|------------|
A---------|--------|--------|---------|---------|----------|------------|
D---Bm----|---A----|---A----|---Em----|---Bm----|-F#--G-A--|--Bm-(stop)-|
G---------|--------|--------|---------|---------|-//--/-/--|------------|
B---------|--------|--------|---------|---------|----------|------------|
E---------|--------|--------|---------|---------|----------|------------|

 Bridge
e------|--------|-------|-------|------|------|----0-|-----0-|-----|-----|
A------|--------|-------|-------|------|------|------|-------|-----|-----|
D-4----|---4----|--3----|--3----|--2---|--2---|--1---|--1----|--0--|--0--|
G-Bm---|---Bm---|--Bm/D-|--Bm/D-|--Bm7-|--Bm7-|--E---|--E----|--Em-|--Em-|
B------|--------|-------|-------|------|------|------|-------|-----|-----|
E------|--------|-------|-------|------|------|------|-------|-----|-----|

                                                  solo
e------|--------|-----|-------|----|----|--------------------------------|
A-4----|----/---|-3---|----/--|-2--|----|-------8-7-11-7-12-10--8-11-5-7-|
D------|-0-/-0--|-----|-0-/-0-|----|----|-4-6-7--------------------------|
G-Em/D-|--/-----|-Em7-|--/----|-A--|-F#-|-------4-4--8-4--9--7--5--4-2-4-|
B------|-/------|-----|-/-----|----|----|-2-4-5--------------------------|
E------|--------|-----|-------|----|----|--------------------------------|

 Solo Continued
e-----------|---------------15-14-------|-----15-14--------------|
A--0-0-0-0--|-------14-15---------15----|------------17-15-14----|
D--4-6-7-9--|--16--------------------16-|-16---------------------|
G-----------|---------------------------|------------------------|
B-----------|---------------------------|------------------------|
E-----------|---------------------------|------------------------|


e-----------------------------------------------------------------|
A-----15-14-------------------------------------------------------|
D--16-------16-14------16-14--------------------------------------|
G------------------16--------16-14-12----14-12--------------------|
B-------------------------------------14--------14-12----12--14---|
E-----------------------------------------------------14----------|

       
e--7p0-0-0---5p0-0-0---3p0-0-0---5p0-0-0--|--2p0-----------------|
A-----------------------------------------|------3p2--3p2--------|
D-----------------------------------------|---------------4p2-4--|
G-----------------------------------------|----------------------|
B-----------------------------------------|----------------------|
E-----------------------------------------|----------------------|


e------------2h3p2-----------------------9----------|
A-------2-5---------5-3------------------7------7*--|
D--5-3-------------------3-4-~~~-----4---7------7*--|
G---------------------------------------------------|
B---------------------------------------------------|
E---------------------------------------------------|


e-----------||------------||-----------||
A-----------||------------||-----------||
D---VERSE---||---CHORUS---||---INTRO---||
G-----------||------------||-----------||
B-----------||------------||-----------||
E-----------||------------||-----------||

Key:
*-Harmonic
~-let note ring
h-hammer on
p-pull off


I hope you like it. It took hours to tab out. 
But it's pretty self explanitory. 
=>
comments
We did not receive enough feedback on this tab! Please rate:
print report bad tab
1 2 3 4 5
2 comments total.
0 reply
Lee is a twat wrote on November 24 2006, 05:32 am

This is a cool tab, but i think the intro goes:

e|--------------------| |-------------------------|
B|-------11---------9-|Play |-12h13p12-11-10----------|
G|-88-8/9-----99-9/8--|Couple |----------------12-11-10-|
D|--------------------|Of Times |-------------------------|
A|--------------------|Then -> |-------------------------|
E|--------------------| |-------------------------|

Sorry if this is a bit wrong, its my fist tab on U-G, and im doing it from memory at college! Great job on the solo btw!

0 reply
Chris_Parker wrote on March 15 2008, 01:15 am

the only thing thats correct is the solo. sorry.

I want to post or [tab]
guest
You may want to rate the tab now too:
select rating
Please do not post tabs as comments. Select "correction" instead!