Oops, an error
Loading. Please wait.

English Army Tab

1,698 views 1 this week
1 commentread comment
1 2 3 4 5
x 6
add to favorites
launch autoscroll
font size
0
reset
how to read this tab
guitar tuner
Autoscroll
slow
fast
+/-
esc
set tempo
stop
Help us to improve Ultimate-Guitar.com Take our survey!
×
Author
b-bend to next fret up, unless noted
r-return bend
p-pull off
~-hold, sustain
Intro:(a)

  F#  D   A   E    F#  D   A   
e------------------------------|
b------------------------------|
g-----7-7-----9-9------7-7-----|
d-4-4-7-7-7-7-9-9--4-4-7-7-7-7-|
a-4-4-5-5-7-7-7-7--4-4-5-5-7-7-|
e-2-2-----5-5------2-2-----5-5-|

  C#    D       E       D E F#    
e------------------------------|
b------------------------------|
g-6-6-6-7-7-7-7-9-9-9-9-7-9-11-|
d-6-6-6-7-7-7-7-9-9-9-9-7-9-11-|
a-4-4-4-5-5-5-5-7-7-7-7-5-7-9--|
e------------------------------|

  D       E
e--------------|
b--------------|
g-7-7-7-7-9-9-9|
d-7-7-7-7-9-9-9|
a-5-5-5-5-7-7-7|
e--------------|


Intro(b):

     A        
e--------------|
b--------------|
g--------------|
d-----2-0------|(x4)
a-0-2-----4-2--|
e--------------|
       

Verse:  

  A   G  F#  F   A   B   E   C#
e---------------------------------|
b---------------------------------|
g------------------------9*--6----|
d-7*--5--4*--3*--7*--9*--9*--6*---|   *listen for exact number of strums
a-7*--5--4*--3*--7*--9*--7*--4*---|
e-5*--3--2*--1*--5*--7*-----------|
pm................................


Chorus:

 F#  D   A   E    F#  D   A   
e------------------------------|
b------------------------------|
g-----7-7-----9-9------7-7-----|
d-4-4-7-7-7-7-9-9--4-4-7-7-7-7-|
a-4-4-5-5-7-7-7-7--4-4-5-5-7-7-|
e-2-2-----5-5------2-2-----5-5-|

  C#    D       E       D E F#    
e------------------------------|
b------------------------------|
g-6-6-6-7-7-7-7-9-9-9-9-7-9-11-|
d-6-6-6-7-7-7-7-9-9-9-9-7-9-11-|
a-4-4-4-5-5-5-5-7-7-7-7-5-7-9--|
e------------------------------|

  D       E
e--------------|
b--------------|
g-7-7-7-7-9-9-9|
d-7-7-7-7-9-9-9|
a-5-5-5-5-7-7-7|
e--------------|


Verse

Chorus

Intro(b) (x3) 


Pre Solo:

  E                            D D# B
e-------------------------------------|
b-------------------------------------|
g-9-9-9-9--9-9-9-9--9-9-9-9-9-9-7-6-4-|
d-9-9-9-9--9-9-9-9--9-9-9-9-9-9-7-6-4-|
a-7-7-7-7--7-7-7-7--7-7-7-7-7-7-5-4-2-|
e-------------------------------------| 


Solo *over verse*

e------------------------5----5----5----5-------------|
b-----------------------------------------------------|
g---------------------5b---5b---5b---5b---4b6r4p2-4-2-|
d-----2-4p2---2-----2---------------------------------|
a-0-4-------4---0-4-----------------------------------|
e-----------------------------------------------------|

e---4-5-4--------------------------------------------|
b-7-------7-5-5p4---------------------------4-5-4-5b7|
g-----------------6-4-6-4-------6p4-----4------------|
d-------------------------6-4-4-----4-6---6----------|
a----------------------------------------------------|
e----------------------------------------------------|

e-----------------------------------------|
b-----1-----8p7-5-3-5-7b------5-----5-----|
g---2---2-------------------6---6-----7-5-|
d-3-------3---------------7-------7-------|
a-----------------------------------------|
e-----------------------------------------|

e--------14-------|
b-14-16b----16-14-|
g-----------------|
d-----------------|
a-----------------|
e-----------------|

e------------------------------------|
b----10----10----10------------------|
g-9b----9b----9b----9b11r9p7---7~~~--|
d----------------------------9-------|
a------------------------------------|
e------------------------------------|

e----12-11-9-7-5-4---------|
b-12---------------7p5-----|
g----------------------6-4-|
d--------------------------|
a--------------------------|
e--------------------------|


Intro

Verse

Chorus(x2)


Outro:

  D  E  A
e-------------|
b-------------|
g-7--9--------|
d-7--9--7--7--|
a-5--7--7--7--|
e-------5--5--|
Suggest correction
comments
print report bad tab
1 comment total.
0 reply
KntckyGentleman 33 Mar 13, 2013 12:39 AM

Pretty good, except one part in the opening sounds a little low. I think this would work better.


F# D A E F# D A
e------------------------------|
b------------------------------|
g-----7-7-----9-9------7-7-----|
d-4-4-7-7-7-7-9-9--4-4-7-7-7-7-|
a-4-4-5-5-7-7-7-7--4-4-5-5-7-7-|
e-2-2-----5-5------2-2-----5-5-|

C# D E D E F#
e--------------------------------|
b--------------------------------|
g-6-6-6-7-7-7-7-9-9-9-9-14-13-14-|
d-6-6-6-7-7-7-7-9-9-9-9-14-13-14-|
a-4-4-4-5-5-5-5-7-7-7-7-12-11-12-|
e--------------------------------|

D E
e--------------|
b--------------|
g-7-7-7-7-9-9-9|
d-7-7-7-7-9-9-9|
a-5-5-5-5-7-7-7|
e--------------|

guest
You may want to rate the tab now too:
select rating
Wanna post a correction for this tab? Suggest correction