Oops, an error
Loading. Please wait.

Faith Tab

version 1
version 1

Whole song

534 views 1 this week
1 commentread comment
1 2 3 4 5
2 more votes to show rating
add to favorites
launch autoscroll
font size
0
reset
how to read this tab
guitar tuner
Autoscroll
slow
fast
+/-
esc
set tempo
stop
Help us to improve Ultimate-Guitar.com Take our survey!
×
Faith - The Living End

tabbed By: Matt Heal
email : mattheal @ gmail.com
for more tabs by the living end check out http://tletabs.webs.com/index.htm

Intro - harmonics
e|------7------|
b|----7---7----|
g|--7-------7--| x as needed
d|-------------|
a|-------------|
E|-------------|

Verse - Finger Picking bit (cant quite figure it out)

Chorus
e|---------------------|
b|---------------------|
g|---------------------|
d|-7---6---5-5\6\7-----|
a|-7---6---5-5\6\7-----|
E|-5-0-4-0-3-3\4\5-----|

e|--------------|
b|--------------|
g|--------------|
d|-2-------2-2--|
a|-2-------2-2--|
E|-0-4-5-6-0-0--|

Verse - Finger Picking bit (cant quite figure it out)

Chorus
e|---------------------|
b|---------------------|
g|---------------------|
d|-7---6---5-5\6\7-----|
a|-7---6---5-5\6\7-----|
E|-5-0-4-0-3-3\4\5-----|

e|--------------|
b|--------------|
g|--------------|
d|-2-------2-2--|
a|-2-------2-2--|
E|-0-4-5-6-0-0--|

bridge

e|--------------------------|
b|--------------------------|
g|--------------------------| repeat as necessary increasing tempo
d|-4-4--444-44-2-4-2-4-2-5--|
a|-4-4--444-44-2-4-2-4-2-5--|
E|-2-2--222-22-0-2-0-2-0-3--|

e|----------|
b|----------|
g|----------|
d|-5-2-4-5--| Repeat as necessary
a|-5-2-4-5--|
E|-3-0-2-3--|
pm *******

Chorus
e|---------------------|
b|---------------------|
g|---------------------|
d|-7---6---5-5\6\7-----|
a|-7---6---5-5\6\7-----|
E|-5-0-4-0-3-3\4\5-----|

e|--------------|
b|--------------|
g|--------------|
d|-2-------2-2--|
a|-2-------2-2--|
E|-0-4-5-6-0-0--|
__________________
Suggest correction
Give kudos to tab author, rate the tab!
1 2 3 4 5
comments
print report bad tab
1 comment total.
0 reply
Oldmonkeys 581 Nov 20, 2008 12:12 AM

1 star cos you ****ing stole my tab from the TLE forums *******!

guest
You may want to rate the tab now too:
select rating
Wanna post a correction for this tab? Suggest correction