Oops, an error
Loading. Please wait.

Faith Tab

version 2
version 2

Whole song

366 views 1 this week
no commentswrite comment
1 2 3 4 5
please rate
add to favorites
launch autoscroll
font size
0
reset
how to read this tab
guitar tuner
Autoscroll
slow
fast
+/-
esc
set tempo
stop
Help us to improve Ultimate-Guitar.com Take our survey!
×
Author
Difficulty
advanced
Hello Folks,

If you are Rabid Living end fans you will love this tab. I figured it out watching a
of "The Longnecks/The Living End" playing the song live.

I have studied the video over and over and i am almost cirtain this is how Chris Plays
The Strumming technique he does for the verses and intro can be done many ways but i tend
Palm Mute and hold the pick between my index finger and thumb, strumming quickly down on 
D, G, And B Strings (on your down stroke Leave the b string as a dead note). As soon
my pick finishes struming the B string, i use my middle finger to pick the B string an 
time actually hitting the note.


This is extremly important if you want it to sound right!


Intro Harmonics

e-----------------|
b----------(5)(5)-|
g------(5)--------|
d--(5)------------|  8x
a-----------------|
e-----------------|

Verse

e---------------------------------|
b-----x-6-----x-5-----x-4-----x-5-|
g---7-------6-------5-------6-----|
d-5-------4-------3-------4-------| as many times as nessicary
a---------------------------------|
e---------------------------------|


Chorus

e---------------------------------|
b---------------------------------|
g---------------------------------|
d-7-0-6-0-5-0-5s6s7-0-6-0-5-0-5s6-| 2x
a-7-0-6-0-5-0-5s6s7-0-6-0-5-0-5s6-|
e-5-0-4-0-3-0-3s4s5-0-4-0-3-0-3s4-|


Go Back into the Verse for as many times as nessicary and then come back to the chorus


Post Chorus

e-----------------------------|
b-----------------------------|
g---1s2s3---------1s2s3s------|
d-2-1s2s3-2--2--2-1s2s3s-2--2-|      2x
a-2-------2--2--2--------2--2-|
e-----------------------------|


Verse

Chorus/Post Chorus

Bridge
(Bass)
g------------------------------|
d------------------------------|
a------------------------------|     3x
e-2--2---2-2-2-22--0-2-0-2--3b-|


(Guitar)
e------------------------------|
b------------------------------|
g------------------------------|
d-4--4---4-4-4-44--2-4-2-4--5b-|       as Many Times As Needed
a-4--4---4-4-4-44--2-4-2-4--5b-|
e-2--2---2-2-2-22--0-2-0-2--3b-|

The Bridge Gradually speeds up untill there are no rests in between the chords and goes
into the chorus/Post Chorus.

Outro

e-----------------------------------------------------------------|
b-8--8b------------8b-8-------------------------------------------|
g-9--7-------7h8h9------9p8p7-------------------------------------|
d-9--9--7h8h9-----------------9p8p7-5h7p5---5h7p5-----------------|
a-7--7------------------------------------7-------7-5h7p5---7p6p5-|
e---------------------------------------------------------7-------|


e----------------------------|
b----------------------------|
g----------------------------|
d--------------------------2-|
a-7b---7p5-----------------2-|
e----------7p6p5--0--3b------|


I am not really sure about the ending, but if you can pull this song off, the chances
you can improvise it.

Enjoy the tab! Viva La Living End!

Tabbed By Ty Righteous
Suggest correction
Give kudos to tab author, rate the tab!
1 2 3 4 5
comments
print report bad tab
guest
You may want to rate the tab now too:
select rating
Please do not post tabs as comments. Select "correction" instead!