Oops, an error
Loading. Please wait.

Fly Away Tab

version 1
version 1

Solo

Whole song

3,306 views 9 this week
2 commentsread comments
1 2 3 4 5
worth learning
x 3
add to favorites
launch autoscroll
font size
0
reset
how to read this tab
guitar tuner
Tab Pro tools
  • play this tab
  • loop segment
  • change instrument
  • show fretboard
  • metronome
Autoscroll
slow
fast
+/-
esc
set tempo
stop
Contributor
                       -The Living End-
                           Fly Away
                  Transcribbed By Michael Fryar
                      manumick20@yahoo.com
                         ICQ # 67053832
 


Intro: 

  B
e------------|
b------------|
g-5-5-5-5-5--|
d-5-5-5-5-5--|
a-2-2-2-2-2--|
e------------|



Verse:

  E             G G#            G F#
e-----------------------------------------------|
b-----------------------------------------------|
g-----------------------------------------------|
d-2-2-2-2-2-2-2-5-6-6-6-6-6-6-6-5-4-4-4-4-4-4-4-|
a-2-2-2-2-2-2-2-5-6-6-6-6-6-6-6-5-4-4-4-4-4-4-4-|
e-0-0-0-0-0-0-0-3-4-4-4-4-4-4-4-3-2-2-2-2-2-2-2-|

  B
e-----------------|
b-----------------|
g-4-4-4-4-4-4-4-4-|
d-4-4-4-4-4-4-4-4-|(x2)
a-2-2-2-2-2-2-2-2-|
e-----------------|



Bridge: (from "understanding..")

  D#   E  F#
e------0--2--|
b---4--0--2--|
g---3--1--3--|
d-1-1--2--4--|(x2)
a------2--4--|
e------0--2--|

  Bm   G    A 
e---2----3----5---5---5-5--|
b---3----3----5---5---5-5--|
g---4----4----6---6---6-6--|
d-4-4----5----7---7---7-7--|
a-2-2--5-5--7-7-7-7-7-7-7--|
e------3-3--5-5-5-5-5-5-5--|



Chorus: (thanks Paul (paulgill_13@hotmail.com) for the chorus
 
e-2-2-2-2-2-2-2-2-2-2-2-2-2-2-2-2-2-2-----|
b-3-3-3-3-3-3-3-3-3-3-3-3-3-3-3-3-3-3-3---|
g-2-2-2-2-2-2-2-2-3-3-3-3-3-3-3-3-2-2---2-|
d-0-0-0-0-0-0-0-0-0-0-0-0-0-0-0-0-0-0-----|
a-----------------------------------------|
e-----------------------------------------|

  C        B
e---------------------------|
b-5-5-5----4-4-----4--------|
g-5-5---5--4---4-----4---4--|
d-5-5------4----------------|
a-3-3------2-----2-----2----|
e---------------------------|

  G          A  A#         D               B
e---3-----3--5----6-----6---------------------------------|
b---3-----3--5----6-----6------7-------7------------------|
g---4-----4--6----7-----7--------7-------7-4-4-4-4-4-4-4-4|
d-5-5-5-5-5--7--8-8-8-8-8--7-7-----7-7-----4-4-4-4-4-4-4-4|
a-5-5-5-5-5--7--8-8-8-8-8--5-5-----5-5-----2-2-2-2-2-2-2-2|
e-3-3-3-3-3--5--6-6-6-6-6---------------------------------|


Verse

Bridge

Chorus

Solo:

e----------------------------------------------------|
b----------------------------------------------------|
g----------------------------------------------------|
d---------2---------5b-4-2---2-4---2-4-4b-5b-4-2-4-2-|
a-----2-4-------2-4--------4-----4-------------------|
e-2-4-------2-4--------------------------------------|

e---------------------------------------8---------|
b-----------------------------------5s8---11-8----|
g-------2-4-5^6-5^6-5^6p4-2-4-2^3^4------------10-|
d-------------------------------------------------|
a-4p2h4-------------------------------------------|
e-------------------------------------------------|

e-----------------------------------15~----------|
b-8-----------------------------3s9-----12-------|
g---10-8-10-8----10-8------8b9-------------14-12-|
d-------------10------10-8-----------------------|
a------------------------------------------------|
e------------------------------------------------|

e---------------------------------------------------------|
b-------14-15p14p12----15p14p12----15p14p12----15p14p12---|
g-11s14-------------13----------13----------13----------12|
d---------------------------------------------------------|
a---------------------------------------------------------|
e---------------------------------------------------------|

e-------------------------------------|
b----------17-19-17----17-19-19^21^19-|
g-14s17-19----------19----------------|
d-------------------------------------|
a-------------------------------------|
e-------------------------------------|

e----------------------------------|
b----------------------------------|
g-------15-------13-------12-10-9--|
d----------------------------------|
a-15h17----13h15----12h14----------|
e----------------------------------|


Bridge


Last Chorus Into Outro:
                                                         
  D               unknown chord   D
e-----------------9-9-9-9-9-9-9-9---------|
b-7-7-7-7-7-7-7-7-9-9-9-9-9-9-9-9-7-7-7---|
g-7-7-7-7-7-7-7-7-7-7-7-7-7-7-7-7-7-7---7-|
d-7-7-7-7-7-7-7-7-7-7-7-7-7-7-7-7-7-7-----|
a-5-5-5-5-5-5-5-5-5-5-5-5-5-5-5-5-5-5-----|
e-----------------------------------------|

  C        B
e---------------------------|
b-5-5-5----4-4-----4--------|
g-5-5---5--4---4-----4---4--|
d-5-5------4----------------|
a-3-3------2-----2-----2----|
e---------------------------|


  G          A  A#         D               B
e---3-----3--5----6-----6---------------------------------|
b---3-----3--5----6-----6------7-------5-------4-----4----|
g---4-----4--6----7-----7--------7-------5-------4-----4--|
d-5-5-5-5-5--7--8-8-8-8-8--7-7-----5-5-----4-4------------|
a-5-5-5-5-5--7--8-8-8-8-8--5-5-----3-3-----2-2-----2-----2|
e-3-3-3-3-3--5--6-6-6-6-6---------------------------------|


  G          A  A#         
e---3-----3----------------|
b---3-----3--2----3-----3--|
g---4-----4--2----3-----3--|
d-5-5-5-5-5--2--3-3-3-3-3--|
a-5-5-5-5-5--0--1-1-1-1-1--|
e-3-3-3-3-3----------------|

  D
e-----2------------|
b-------3-----2----|
g---------2--------|
d-0-0-------0---0--| keep repeating that D
a------------------| chord as needed
e------------------|


*in the background of that D chord this comes in:

e--------------------------------|
b-8-8-7-7-5-5-3-3----------------|
g-----------------3-3-3-3-3-5-3--|
d--------------------------------|(x4)
a--------------------------------|
e--------------------------------|

End On:
  D
e--------|
b-----3--|
g---2----|
d-0------|
a--------|
e--------|
comments
We did not receive enough feedback on this tab! Please rate:
print report bad tab
1 2 3 4 5
2 comments total.
0 reply
huh?!?blah wrote on June 24 2007, 03:07 pm

dude the solo is way ****ing wrong

0 reply
huh?!?blah wrote on June 24 2007, 03:09 pm

the fricken solo is wrong, and it starts with e on the sixth strong, not effing f#

I want to post or [tab]
guest
You may want to rate the tab now too:
select rating
Please do not post tabs as comments. Select "correction" instead!