Oops, an error
Loading. Please wait.

Fly Away Tab

version 2
version 2

Solo

Whole song

1,260 views 6 this week
no commentswrite comment
1 2 3 4 5
accurate
x 3
add to favorites
launch autoscroll
font size
0
reset
how to read this tab
guitar tuner
Tab Pro tools
  • play this tab
  • loop segment
  • change instrument
  • show fretboard
  • metronome
Autoscroll
slow
fast
+/-
esc
set tempo
stop
Contributor
Difficulty
intermediate
-------------------------------------------------------------------------------
			     Fly Away - The Living End
-------------------------------------------------------------------------------
Tabbed by: Shimmy
Email:michael_shim@hotmail.com

This my First Guitar Tab that i've posted up... Hope you like it. This is as close as i can get 

to the actual version of Fly away so there are little bits that chris Cheney does to make it more 

tricky =] You'll see. If there is something wrong with the tab email me to let me know.

Tuning: Standard

Intro:
e|--2---------------------|
B|--4---------------------|
G|--4---------------------|
D|--4--X7--(really Fast)--|
A|--2---------------------|
E|------------------------|

Verse/s:
  "I've Told my self...."
    E	            G#	          G F#		    B
e|----------------------------------------------------------------------|
B|----------------------------------------------------------------------|
G|--1-1-1-1-1-1-1-1-4-4-4-4-4-4-4-3-2-2-2-2-2-2-2-2-8-8-8-8-8-8-8-8-----|
D|--2-2-2-2-2-2-2-2-6-6-6-6-6-6-6-5-4-4-4-4-4-4-4-4-9-9-9-9-9-9-9-9-----|
A|--2-2-2-2-2-2-2-2-6-6-6-6-6-6-6-5-4-4-4-4-4-4-4-4-9-9-9-9-9-9-9-9-----|
E|--0-0-0-0-0-0-0-0-4-4-4-4-4-4-4-3-2-2-2-2-2-2-2-2-7-7-7-7-7-7-7-7-----|
 /p a l m     m u t e d .............................................

    E	   	    G#		  F#		  B
e|--------------------------6-6-4----------------------------7----------|
B|--------------------------4-4-4----------------------------------7----|
G|--1-1-1-1-1-1-1-1-4-4-4-4-4-4-4-2-2-2-2-2-2-2-2-8-8-8-8-7h8--7h8------|
D|--2-2-2-2-2-2-2-2-6-6-6-6-4-4-6-4-4-4-4-4-4-4-4-9-9-9-9---------------|
A|--2-2-2-2-2-2-2-2-6-6-6-6-6-6-6-4-4-4-4-4-4-4-4-9-9-9-9---------------|
E|--0-0-0-0-0-0-0-0-4-4-4-4-4-4-4-2-2-2-2-2-2-2-2-7-7-7-7---------------|
 ........................................................\

Bridge:
   D#        E     F#	       Bm      G        A 
E|---6-6-6-6-7-7-/-9--9----------2-2-2---3-3-3----5-5-5-5-5-5--|
B|---7-7-7-7-7-9-/-11-11---------3-3-3---3-3-3----5-5-5-5-5-5--|
G|---8-8-8-8-9-9-/-11-11--X2-----4-4-4---4-4-4----6-6-6-7-6-6--|
D|---8-8-8-8-9-9-/-11-11---------4-4-4---5-5-5----7-7-7-7-7-7--|
A|-6-6-6-6-6-7-7-/-9--9--------2-2-2-2---5-5-5----7-7-7-7-7-7--|
E|-------------------------------------3-3-3-3--5-5-5-5-5-5-5--|
   "Under...Standing..."


Chorus:
   D		   D?
E|-2-2-2-2-2-2-2-2-2-2-2-2-2-2-2-2-2-2-2-2----|
B|-3-3-3-3-3-3-3-3-3-3-3-3-3-3-3-3-3-3-3-3-3--|
G|-2-2-2-2-2-2-2-2-3-3-3-3-3-3-3-3-2-2-2-2--2-|
D|-0-0-0-0-0-0-0-0-0-0-0-0-0-0-0-0-0-0-0-0----|
A|--------------------------------------------|
E|--------------------------------------------|
 "So Should I Stay..."
  C        B
E|---------------------------|
B|-5-5-5-5--4-4-4-4-4-4-4-4--|
G|-5-5-5-5--4-4-4-4-4-4-4-4--|
D|-5-5-5-5--4-4-4-4-4-4-4-2--|
A|-3-3-3-3--2-2-2-2-2-2-2-2--|
E|---------------------------|
 (Finger Pick this part if you want)
   G               A A#              C  D               B
E|---3-3-3-3-3-3-3-5---6-6-6-6-6-6-6-8--5-5-5-5-5-5-5-5---------------|
B|---3-3-3-3-3-3-3-5---6-6-6-6-6-6-6-8--7-7-7-7-7-7-7-7-4-4-4-4-4-4-4-|
G|---4-4-4-4-4-4-4-6---7-7-7-7-7-7-7-9--7-7-7-7-7-7-7-7-4-4-4-4-4-4-4-|
D|---5-5-5-5-5-5-5-7---8-8-8-8-8-8-8-10-7-7-7-7-7-7-7-7-4-4-4-4-4-4-4-|
A|---5-5-5-5-5-5-5-7---8-8-8-8-8-8-8-10-5-5-5-5-5-5-5-5-2-2-2-2-2-2-2-|
E|-3-3-3-3-3-3-3-3-5-6-6-6-6-6-6-6-6-8--------------------------------|

Verse/s:  
    E	            G#	          G F#		    B
E|----------------------------------------------------------------------|
B|----------------------------------------------------------------------|
G|--1-1-1-1-1-1-1-1-4-4-4-4-4-4-4-3-2-2-2-2-2-2-2-2-8-8-8-8-8-8-8-8-----|
D|--2-2-2-2-2-2-2-2-6-6-6-6-6-6-6-5-4-4-4-4-4-4-4-4-9-9-9-9-9-9-9-9-----|
A|--2-2-2-2-2-2-2-2-6-6-6-6-6-6-6-5-4-4-4-4-4-4-4-4-9-9-9-9-9-9-9-9-----|
E|--0-0-0-0-0-0-0-0-4-4-4-4-4-4-4-3-2-2-2-2-2-2-2-2-7-7-7-7-7-7-7-7-----|
 /p a l m     m u t e d .............................................\
 "Ohh Yet again...."

    E	   	    G#		  F#		  B
E|--------------------------6-6-4------------------------10--9-7----|
B|--------------------------4-4-4-----------------------------------|
G|--1-1-1-1-1-1-1-1-4-4-4-4-4-4-4-2-2-2-2-2-2-2-2-8-8-8-8-8--8-8----|
D|--2-2-2-2-2-2-2-2-6-6-6-6-4-4-6-4-4-4-4-4-4-4-4-9-9-9-9-9--9-9----|
A|--2-2-2-2-2-2-2-2-6-6-6-6-6-6-6-4-4-4-4-4-4-4-4-9-9-9-9-9--9-9----|
E|--0-0-0-0-0-0-0-0-4-4-4-4-4-4-4-2-2-2-2-2-2-2-2-7-7-7-7-7--7-7----|
 /p a l m     m u t e d .................................\


Bridge:
   D#        E     F#	       Bm      G        A 
E|---6-6-6-6-7-7-/-9--9----------2-2-2---3-3-3----5-5-5-5-5-5--|
B|---7-7-7-7-7-9-/-11-11---------3-3-3---3-3-3----5-5-5-5-5-5--|
G|---8-8-8-8-9-9-/-11-11--X2-----4-4-4---4-4-4----6-6-6-7-6-6--|
D|---8-8-8-8-9-9-/-11-11---------4-4-4---5-5-5----7-7-7-7-7-7--|
A|-6-6-6-6-6-7-7-/-9--9--------2-2-2-2---5-5-5----7-7-7-7-7-7--|
E|-------------------------------------3-3-3-3--5-5-5-5-5-5-5--|
   "Under...Standing..."

Chorus:
   D		   D?
E|-2-2-2-2-2-2-2-2-2-2-2-2-2-2-2-2-2-2-2-2----|
B|-3-3-3-3-3-3-3-3-3-3-3-3-3-3-3-3-3-3-3-3-3--|
G|-2-2-2-2-2-2-2-2-3-3-3-3-3-3-3-3-2-2-2-2--2-|
D|-0-0-0-0-0-0-0-0-0-0-0-0-0-0-0-0-0-0-0-0----|
A|--------------------------------------------|
E|--------------------------------------------|
 "So Should I Stay..."

  C        B
E|---------------------------|
B|-5-5-5-5--4-4-4-4-4-4-4-4--|
G|-5-5-5-5--4-4-4-4-4-4-4-4--|
D|-5-5-5-5--4-4-4-4-4-4-4-2--|
A|-3-3-3-3--2-2-2-2-2-2-2-2--|
E|---------------------------|
 (Pick this part if you want)

   G               A A#              C  D               B
E|---3-3-3-3-3-3-3-5---6-6-6-6-6-6-6-8--5-5-5-5-5-5-5-5---------------|
B|---3-3-3-3-3-3-3-5---6-6-6-6-6-6-6-8--7-7-7-7-7-7-7-7-4-4-4-4-4-4-4-|
G|---4-4-4-4-4-4-4-6---7-7-7-7-7-7-7-9--7-7-7-7-7-7-7-7-4-4-4-4-4-4-4-|
D|---5-5-5-5-5-5-5-7---8-8-8-8-8-8-8-10-7-7-7-7-7-7-7-7-4-4-4-4-4-4-4-|
A|---5-5-5-5-5-5-5-7---8-8-8-8-8-8-8-10-5-5-5-5-5-5-5-5-2-2-2-2-2-2-2-|
E|-3-3-3-3-3-3-3-3-5-6-6-6-6-6-6-6-6-8--------------------------------|

Solo:
I haven't finished the whole thing yet sorry. Havent done much but email me if you know the rest =]

E|---------------------------------------------------------------------------|
B|----------------------------------------------4-5p-4---4-------------------|
G|--------------------------------------------4--------6---6-4---4-----------|
D|------------------------2-4b-4pbr-2----4-6h------------------6---6-6b-5-4--|
A|------2-4h---------2-4h-------------4h-------------------------------------|
E|--2-4h------0-2-4h---------------------------------------------------------|

                            (Missing Part....)


Chorus:
   D		   D?
E|-2-2-2-2-2-2-2-2-2-2-2-2-2-2-2-2-2-2-2-2----|
B|-3-3-3-3-3-3-3-3-3-3-3-3-3-3-3-3-3-3-3-3-3--|
G|-2-2-2-2-2-2-2-2-3-3-3-3-3-3-3-3-2-2-2-2--2-|
D|-0-0-0-0-0-0-0-0-0-0-0-0-0-0-0-0-0-0-0-0----|
A|--------------------------------------------|
E|--------------------------------------------|
 "So Should I Stay..."

  C        B
E|---------------------------|
B|-5-5-5-5--4-4-4-4-4-4-4-4--|
G|-5-5-5-5--4-4-4-4-4-4-4-4--|
D|-5-5-5-5--4-4-4-4-4-4-4-2--|
A|-3-3-3-3--2-2-2-2-2-2-2-2--|
E|---------------------------|
 (Pick this part if you want)

   G               A A#              C  D               B
E|---3-3-3-3-3-3-3-5---6-6-6-6-6-6-6-8--5-5-5-5-3-3-3-3---------------|
B|---3-3-3-3-3-3-3-5---6-6-6-6-6-6-6-8--7-7-7-7-5-5-5-5-4-4-4-4-4-4-4-|
G|---4-4-4-4-4-4-4-6---7-7-7-7-7-7-7-9--7-7-7-7-5-5-5-5-4-4-4-4-4-4-4-|
D|---5-5-5-5-5-5-5-7---8-8-8-8-8-8-8-10-7-7-7-7-5-5-5-5-4-4-4-4-4-4-4-|
A|---5-5-5-5-5-5-5-7---8-8-8-8-8-8-8-10-5-5-5-5-3-3-3-3-2-2-2-2-2-2-2-|
E|-3-3-3-3-3-3-3-3-5-6-6-6-6-6-6-6-6-8--------------------------------|

   G               A A#              C                 
E|---3-3-3-3-3-3-3-5---6-6-6-6-6-6-6-8--|
B|---3-3-3-3-3-3-3-5---6-6-6-6-6-6-6-8--|
G|---4-4-4-4-4-4-4-6---7-7-7-7-7-7-7-9--|
D|---5-5-5-5-5-5-5-7---8-8-8-8-8-8-8-10-|
A|---5-5-5-5-5-5-5-7---8-8-8-8-8-8-8-10-|
E|-3-3-3-3-3-3-3-3-5-6-6-6-6-6-6-6-6-8--|

   D								     D
E|-----2----0---------2----0-----------2----0----------2----0-----|--0---|
B|---3---------3----3----------3-----3----------3----3----------3-|--3---|
G|-2-----2---2----2-----2----2-----3-----3----3----3-----3----3---|--2---|
D|----------------------------------------------------------------|------|
A|----------------------------------------------------------------|------|
E|----------------------------------------------------------------|------|
  (Picking)

************************************

| /   slide up
| \   slide down
| h   hammer-on
| p   pull-off
| ~   vibrato
| +   harmonic
| x   Mute note
| b   Bend
| pb  Pre-bend
| br  Bend release
| pbr Pre-bend release
| brb Bend release bend

************************************
comments
We did not receive enough feedback on this tab! Please rate:
print report bad tab
1 2 3 4 5
I want to post or [tab]
guest
You may want to rate the tab now too:
select rating
Please do not post tabs as comments. Select "correction" instead!