Oops, an error
Loading. Please wait.

For Another Day Tab

version 2
version 2

Whole song

524 views 3 this week
no commentswrite comment
1 2 3 4 5
please rate
add to favorites
launch autoscroll
font size
0
reset
how to read this tab
guitar tuner
Tab Pro tools
  • play this tab
  • loop segment
  • change instrument
  • show fretboard
  • metronome
×
Best way to learn
"For Another Day"
Autoscroll
slow
fast
+/-
esc
set tempo
stop
Contributor
Difficulty
Capo
novice
2nd fret
For Another Day - The Living End

Tabbed By Mark Broadley

Credit to Matt Heal I used his tab to create this one!
Hopefully this is right!
Capo on 2nd fret tab is relevant to the capo being 0

Intro/Main Riff 
You can just play the top 2 notes and it sounds fine but 
the proper version goes like this

e-------------------------------------------------|
B-----------------------0-0-0-0-0-0-0-0-----------|
G-9-9-9-9-9-------------6-6-6-6-6-6-6-6-9-9-9-9-9-|
D-x-x-x-x-x-------------7-7-7-7-7-7-7-7-x-x-x-x-x-| repeat as needed
A-7-7-7-7-7--7-7-7-7-7--7-7-7-7-7-7-7-7-7-7-7-7-7-|
E-0-0-0-0-0--4-4-4-4-4--5-5-5-5-5-5-5-5-0-0-0-0-0-|
Next bit it pretty much the same but with a chord played at the end of each phrase

e-------------------------------------5--|
B-------------------------------------5--|
G-9-9-9-9-9-------------6-6-6-6-6-6-6-6--| repeat as needed
D-x-x-x-x-x-------------7-7-7-7-7-7-7-7--|
A-7-7-7-7-7--7-7-7-7-7--7-7-7-7-7-7-7-7--|
E-0-0-0-0-0--4-4-4-4-4--5-5-5-5-5-5-5-5--|

Main riff keeps going plus this

e-------0---------0---------0---------0-------|
B---0-----0---0-----0---0-----0---0-----0-----|
G-1---1-----1---1-----2---2-----2---2-----2---| repeat as needed
D---------------------------------------------|
A---------------------------------------------|
E---------------------------------------------|

Then this goes over the main riff

e---------------------|
B-5--5-5-5--5--5-5-5--|
G---------------------| Repeat as needed
D-2--2-2-2--2--2-2-2--|
A---------------------|
E---------------------|

e--0-|
B--0-|
G--2-|
D--2-| 
A--1-|
E--0-|

Then the heavy bit comes in


e--5-5-5-|--0-0-0-0--4-4-4-4--5-5-5-5-5-5-5-5--|
B--5-5-5-|--0-0-0-0--4-4-4-4--5-5-5-5-5-5-5-5--|
G--6-6-6-|--2-2-2-2--4-4-4-4--6-6-6-6-6-6-6-6--|
D--7-7-7-|--2-2-2-2--6-6-6-6--7-7-7-7-7-7-7-7--| Repeat as needed
A--7-7-7-|--1-1-1-1--6-6-6-6--7-7-7-7-7-7-7-7--|
E--5-5-5-|--0-0-0-0--4-4-4-4--5-5-5-5-5-5-5-5--|

Then the vocal solo comes in

Album Version
the note changes are in the bass
e-------------------------------------------------|
B-------------------------------------------------|
G-------------------------------------------------|
D-------------------------------------------------|Repeat as needed
A-7-7-7-7-7--7-7-7-7-7--7-7-7-7-7-7-7-7-7-7-7-7-7-|
E-0-0-0-0-0--0-0-0-0-0--0-0-0-0-0-0-0-0-0-0-0-0-0-|

Live Version
Chris just plays the main riff
e-------------------------------------------------|
B-------------------------------------------------|
G-------------------------------------------------|
D-------------------------------------------------|Repeat as needed
A-7-7-7-7-7--7-7-7-7-7--7-7-7-7-7-7-7-7-7-7-7-7-7-|
E-0-0-0-0-0--4-4-4-4-4--5-5-5-5-5-5-5-5-0-0-0-0-0-|

Then it goes back to this

e--0-0-0-0--4-4-4-4--5-5-5-5-5-5-5-5--|
B--0-0-0-0--4-4-4-4--5-5-5-5-5-5-5-5--|
G--2-2-2-2--4-4-4-4--6-6-6-6-6-6-6-6--|
D--2-2-2-2--6-6-6-6--7-7-7-7-7-7-7-7--| Repeat as needed
A--1-1-1-1--6-6-6-6--7-7-7-7-7-7-7-7--|
E--0-0-0-0--4-4-4-4--5-5-5-5-5-5-5-5--|

e--0-|
B--0-|
G--2-|
D--2-|let ring out 
A--1-|
E--0-|


e-------0---------0---------0---------0-------|
B---0-----0---0-----0---0-----0---0-----0-----|
G-1---1-----1---1-----2---2-----2---2-----2---| repeat as needed
D---------------------------------------------| it sounds a bit more defined this time
A---------------------------------------------|
E---------------------------------------------|

then end on
e--0-|
B--0-|
G--2-|
D--2-|let ring out 
A--1-|
E--0-|
comments
We did not receive enough feedback on this tab! Please rate:
print report bad tab
1 2 3 4 5
I want to post or [tab]
guest
You may want to rate the tab now too:
select rating
Please do not post tabs as comments. Select "correction" instead!