Oops, an error
Loading. Please wait.

Have They Forgotten Tab

version 2
version 2

Whole song

732 views 1 this week
1 commentread comment
1 2 3 4 5
please rate
add to favorites
launch autoscroll
font size
0
reset
how to read this tab
guitar tuner
Autoscroll
slow
fast
+/-
esc
set tempo
stop
Help us to improve Ultimate-Guitar.com Take our survey!
×
Author
Difficulty
advanced
HAVE THEY FORGOTTEN?

/= slide up
\= slide down
h=hammer on
p= pull off
~= vibrado
pm= palm muted
^= full bend
v= bring bend down


This is an outragiously AwSoM3 SOnG!
This is favourtie song still!

Intro:

e--------------------------------------|
b--------------------------------------|
g-9-9--9----9-9--9----9-9--9-------9\--|
d-9-9--9----9-9--9----9-9--9-------9\--|
a-7-7--7----7-7--7----7-7--7-------7\--|
e-0-0--0----0-0--0----0-0--0-----------|


Main Riff:

e----------------------------------|
b----------------------------------|
g-----0-0-------------2-2-0-0------|
d---------4-4-2-2-------------4----| x3
a-----------------2----------------|
e--0-------------------------------|

e--------------------------------|
b--------------------------------|
g-----0-0------------------------|
d--2------4-4-2-2--0-0-----------|
a----------------------3-3-2--0--|
e--------------------------------|


Verse:

e--------------------------------------------------------------------------------|
b--------------------------------------------------------------------------------|
g-------------------------------------4------------------------------------------|
d--2----------------------------------4------------------------------------------|
a--2----------------------------------2--2--2-2--2-2--2-2--2-2--2-2--2-2--2-2--2-|
e--0--0-3-3-0-0-3-3-0-0-3-3-0-0-3-3----------------------------------------------|
      pm...........................      .......................................


e----------------------------------------------------------------------------------------|
b---------------------------------------------------------------------------4-4-------4--|
g-------------------------------------2---------------------------------4-4-4-4--4---4---|
d--2----------------------------------2---------------------------------4-4-4-4--4--4----|
a--2----------------------------------0--0-----0-0-3-3-0-0-----0-0-3-3--2-2-2-2--2-2-----|
e--0--0-3-3-0-0-3-3-0-0-3-3-0-0-3-3--------3-3-------------3-3---------------------------|

e--0-------------------------------|
b--0-------------------------------|
g--0--0-0-------------2-2-0-0------|
d--2------4-4-2-2-------------4-4--|
a--2--------------2-2--------------|
e--0-------------------------------|

e--------------------------------|
b--------------------------------|
g-----0-0------------------------|
d--2------4-4-2-2--0-0-----------|
a----------------------3-3-2--0--|
e--------------------------------|

Repeat Verse

Chorus:

e-----3---3-3-3-----2---2-2-2-----0--0---------0----|
b-----3---3-3-3-----3---3-3-3-----0--0--------0-----|
g-----0---0-0-0-----2---2-2-2-----0--0-------0------| (x2)
d-----0---0-0-0--0--0---0-0-0-----2--2--2---2-------|
a-----2---2-2-2-------------------2--2--2--2--------|
e--3--3---3-3-3----------------0--0--0--0-0---------|


e-----------------------------3--2---------0--0--------------|
b-----------------------------3--2--------0---0--------------|
g--5--5---5-5-5--7--7-7--7----0--2-------0----0---4---5---4--|
d--5--5---5-5-5--7--7-7--7----0--4--2---2-----2---4---5---4--|
a--3--3---3-3-3--5--5-5--5----2--4--2--2------2---2---3---2--|
e---------------------------3-3--2--0-0-------0--------------|


Main Riff

Verse

Main Riff

Chorus

Bridge:

e--0---------2------0~-----------|
b--0---------0------0~-----------|
g--0---------0------0~-----------|
d--2---------2------2~-(whammy)--|
a--2---------2------2~-----------|
e--0---------0------0~-----------|


In this bit, make sure you let the bass note on the e string ring
e-----0-------------0-------------0--------------------------|
b---------1--0---------1--0---------1--0---------------------|
g------------------------------------------------------------|
d------------------------------------------2-2--0-0----------| x4
a----------------------------------------------------3-3-2-2-|
e--0-------------2-------------3-----------------------------|
                                           pm...............

e------------------------------------------------|
b------------------------------------------------|
g--2----------------------5----------------------|
d--2----------------------5----------------------|
a--0--0--0-0-0-0-0-0-0-0--3--3-3-3-3-3-3-3-3-3---|
e------------------------------------------------|

Solo: Chords in backround are Em, F#m, G

e---0-0-0-0-0-0-0-0-0-0-0-0----------------------------------------|
b--/5-5-5-5-5-5-3-3-3-3-3-3----------------------------------------|
g----------------------------2p0-2p0-2^v--0-2^v-0-2p0-----0--------|
d-----------------------------------------------------2p0---2p0-2--|
a------------------------------------------------------------------|
e------------------------------------------------------------------|

This is where the fun begins
e-----------------------------------------------------------------------|
b---------------------------------------------------------------14/15---|
g------------------------------9-8h9-----------------9--11--12----------|
d-----------------------7-9-10-------10-9-9/7--------x----------11/12---|
a--/7--9-10p9p7-9/10-10-----------------------10\9-9-7------------------|
e-----------------------------------------------------------------------|

e--/7-7-7-7--8-8-8-8--9-9-9-9-10-10-10-10-11^---10-12-13^--|
b--/7-7-7-7--8-8-8-8---------------------------------------|
g----------------------------------------------------------|
d----------------------------------------------------------|
a----------------------------------------------------------|
e----------------------------------------------------------|

e-12-14-15p14----15p14----15p14----15p14----15p14----|
b-------------12-------12-------12-------12-------12-|
g----------------------------------------------------|
d----------------------------------------------------|
a----------------------------------------------------|
e----------------------------------------------------|

e--15\14-14\12-12\10-10\9-9\7-7----|
b--15\14-14\12-12\10-10\9-9\7-7----|
g----------------------------------|
d----------------------------------|
a----------------------------------|
e----------------------------------|

then play

e-7-7-7-7\6--------7---7---7---7-6---|
b-8-8-8-8\7--------8---8---8---8-7---|
g-9-9-9-9\8--------9---9---9---9-8---|
d-9-9-9-9\8--(x4)--9---9---9---9-8---|
a-7-7-7-7\6--------7---7---7---7\6---|
e--------------------0---0-----------|


Last Chorus: There's actually a quiet solo over the last chorus. So these are the chords:

e--3----10~-----------0--------------------3----2----0---------------------|
b--3----10~-----------0--------------------3----3----0---------------------|
g--4----11~-----------0--------------------4----2----0---------------------|
d--5----12~-(whammy)--2--------------------5----0----2---------------------|
a--5----12~-----------2--------------------5---------2---------------------|
e--3----10~-----------0--3--0-0-3-3-0-0-3--3---------0--3--0-0-3-3-0-0-3---|

e-----------------------------2--2---------0--|
b-----------------------------2--2--------0---|
g--5--5---5-5-5--7--7-7--7----0--2-------0----|
d--5--5---5-5-5--7--7-7--7----0--4--2---2-----|
a--3--3---3-3-3--5--5-5--5----2--4--2--2------|
e---------------------------3-3--2--0-0-------|

And the solo:

e--0-0-0-0----------5h7-7~-7p5--9^--8--7------10\8-8\7-7\5-3--|
b-/8-7-5-3--3/5-7h8----------------------10---10\8-8\7-7\5-5--|
g-------------------------------------------------------------|
d-------------------------------------------------------------|
a-------------------------------------------------------------|
e-------------------------------------------------------------|

Then

e--0-----------2---0---|
b--0-----------2---0---|
g--0---4---5---3---0---|
d--2---4---5---4---2---|
a--2---2---3---2---2---|
e--0---------------0---|

And the final solo...

e-----------------------------------------------------12--10-----|
b-------------------------10--11^--11^--11^v-10---------------12-|
g--/9-11-12p11-9-11/12-12-----------------------12-11------------|
d----------------------------------------------------------------|
a----------------------------------------------------------------|
e----------------------------------------------------------------|

e---------------------------------------------------------------------------------------------------|
b--13p12p10-12p10----10-----------------------------------------------------------------------------|
g-----------------12----12p11-12p11p9-11p9----9-----------------------------------------------------|
d------------------------------------------12---12p9-12p9----9--------------------------------------|
a---------------------------------------------------------12---12p10-12p10p9-10p9-------------------|
e---------------------------------------------------------------------------------12p10p9-7-5-3-2~--|

Finish on

e-0-|
b-0-|
g-0-|
d-2-|
a-2-|
e-0-|


This song is still one of my favourites to this day....
Have fun, Especially with the last part!

Tabbed By Moonpie/Mikey.B
Suggest correction
What's this?
You can suggest a correction to this tab. Community and Mods will review your correction and vote to approve or reject it.
comments
We did not receive enough feedback on this tab! Please rate:
print report bad tab
1 2 3 4 5
1 comment total.
0 reply
dyl24 164 wrote on May 31 2010, 10:15 pm

This is easily the perfect tab for this song great job.

guest
You may want to rate the tab now too:
select rating
Please do not post tabs as comments. Select "correction" instead!