Oops, an error
Loading. Please wait.

Heatwave bass

version 1
version 1

Whole song

Interactive

408 views 1 this week
no commentswrite comment
1 2 3 4 5
2 more votes to show rating
add to favorites
×
Save as Personal and add changes to this tab that will be seen only by you. Learn more ›
×
You can save this tab as Personal to edit and correct it or add notes. All changes will be seen only by you. Learn more »
launch autoscroll
font size
0
reset
guitar tuner
edit
Autoscroll
slow
fast
+/-
esc
set tempo
stop
Author
Difficulty
-------------------------------------------------------------------------------
			     Heatwave - The Living End
-------------------------------------------------------------------------------

Tabbed By : Brandon Richards 
e-mail: 

Tuning:Standard (EADG)

Awesome song off their new album. The main riff is a little hard just remember to 
get your timing right in that and it will be sweet :)

Intro 
G|--------------------|
D|--------------------|
A|-00-1~--------------|
E|--------------------| X2

Verse 
G|---------------------|
D|---------------------|
A|-------4--5--6--54---|
E|12\2-22-22-22-22--5--|X1

G|---------------------|
D|---------------------|
A|----4--5--6--54------|
E|2-22-22-22-22--5-----|X11

Pre-Chorus 
G|---------------------------------|
D|---------------------------------|
A|22222222222222222222222222222222-|
E|---------------------------------|

Chorus 
G|---------------------------------------------------------|
D|---------------------------------------------------------|
A|--------55555555--------55555555--------55555555-55-55-5-|
E|22222222--------22222222--------22222222-----------------|

Verse 2
G|---------------------|
D|---------------------|
A|-------4--5--6--54---|
E|12\2-22-22-22-22--5--|X1

G|---------------------|
D|---------------------|
A|----4--5--6--54------|
E|2-22-22-22-22--5-----|X1

Rest for acoustic bit 

G|----------|
D|----------|
A|-4-2-0----|
E|-------4--|X1

G|---------------------|
D|---------------------|
A|----4--5--6--54------|
E|2-22-22-22-22--5-----|X4

Pre-Chorus 
G|---------------------------------|
D|---------------------------------|
A|22222222222222222222222222222222-|
E|---------------------------------|

Chorus2
G|------------------------------------------------------------------|
D|------------------------------------------------------------------|
A|--------55555555--------55555555--------55555555---------55555555-|
E|22222222--------22222222--------22222222---------22222222---------|

G|--------------------|
D|--------------------|
A|-00-1~--------------|
E|--------------------|X4

Solo
G|-------------------------|
D|---11--12--13---13-12----|
A|-99--99--99--99-------13-|
E|-------------------------|X4

G|------------------|
D|------------------|
A|5555-78-7777 910--|
E|------------------|X4

Verse3 
G|---------------------|
D|---------------------|
A|-------4--5--6--54---|
E|12\2-22-22-22-22--5--|X2

Chorus/Outro 
G|------------------------------------------------------------------|
D|------------------------------------------------------------------|
A|--------55555555--------55555555--------55555555---------55555555-|
E|22222222--------22222222--------22222222---------22222222---------|

G|---------------------------------------------------------|
D|---------------------------------------------------------|
A|--------55555555--------55555555--------55555555-55-55-5-|
E|22222222--------22222222--------22222222-----------------|

| /  slide up
| \  slide down
| h  hammer-on
| p  pull-off
| ~  vibrato
| +  harmonic
| x  Mute note
===============================================================================

            
            
Suggest correction
Creating personal tab
Creating personal tab
You can edit any tab online and save it as your Personal.

You can edit, replace or remove any tab part or add personal notes – all changes will be seen only by you.

Personal tabs can be accessed anytime from any device, even offline.
Learn more »
Give kudos to tab author, rate the tab!
1 2 3 4 5
comments
print report bad tab
guest
You may want to rate the tab now too:
select rating
Wanna post a correction for this tab? Suggest correction