Oops, an error
Loading. Please wait.

How Do We Know tab

version 3
version 3

Whole song

Interactive

719 views 3 this week
1 commentread comment
1 2 3 4 5
1 last vote to show rating
add to favorites
×
Save as Personal and add changes to this tab that will be seen only by you. Learn more ›
×
You can save this tab as Personal to edit and correct it or add notes. All changes will be seen only by you. Learn more »
launch autoscroll
font size
0
reset
how to read this tab
guitar tuner
edit
Autoscroll
slow
fast
+/-
esc
set tempo
stop
How Do We Know??
The Living End- White Noise 2008

Guitar- Standard tuning
Bass- Standard tuning 

Bass line tabed out by me (who does not play bass XD)
the guitar I found somewhere But I modified a few bits of it :D
Enjoy :D
got any questions:
Joanne- vampiremax@aol.com.au
deviantART- http://joxicorn.deviantart.com/
youtube- http://www.youtube.com/user/Joxicorn?feature=mhum


INRTO RIFF:
E-------------------------------------------|
B----3--3--3--3-------3--3--3--3------------|
G----------------------------------2b-r2-0--|
D-------------------------------------------|
A-------------------------------------------|
E-0---------------0-------------------------|
-
G-------------------------------------------|
D-------------------------------------------|
A-------------------------------------------|
E-------------------------------------------|



E--------------------------------------0----|
B---3--3--3--3------3--3--3--3--------------|
G---------------------------------2b-4------|
D-------------------------------------------|
A-------------------------------------------|
E-0--------------0--------------------------|
-
G-------------------------------------------|
D-------------------------------------------|
A-------------------------------------------|
E-------------------------------------------|



E-------------------------------------------|
B----3--3--3--3-------3--3--3--3------------|
G----------------------------------2b-r2-0--|
D-------------------------------------------|
A-------------------------------------------|
E-0---------------0-------------------------|
-
G-------------------------------------------|
D-------------------------------------------|
A-------------------------------------------|
E-------------------------------------------|




E-----------0-------------------------------|
B--------0-----3----------------------------|
G--2b4------------4b2-0-------2----0--------|
D--------------------------2----2-----------|
A-------------------------------------------|
E-------------------------------------------|

G-------------------------------------------|
D-------------------------------------------|
A-------------------------------------------|
E-------------------------------------------|




E-------------------------------------------|
B----3--3--3--3-------3--3--3--3------------|
G----------------------------------2b-r2-0--|
D-------------------------------------------|
A-------------------------------------------|
E-0---------------0-------------------------|
-
G-------------------------------------------|
D-------------------------------------------|
A-------------------------------------------|
E-0---------------0-------------------------|



E--------------------------------------0----|
B---3--3--3--3------3--3--3--3--------------|
G---------------------------------2b-4------|
D-------------------------------------------|
A-------------------------------------------|
E-0--------------0--------------------------|
-
G-------------------------------------------|
D-------------------------------------------|
A-------------------------------------------|
E-0--------------0--------------------------|



E-------------------------------------------|
B----3--3--3--3-------3--3--3--3------------|
G----------------------------------2b-r2-0--|
D-------------------------------------------|
A-------------------------------------------|
E-0---------------0-------------------------|
-
G-------------------------------------------|
D-------------------------------------------|
A-------------------------------------------|
E-0---------------0-------------------------|


E--3p0------------------0---------------------------------|
B--------3p0-3p0-3b5----------3-0-----------3-0-----------|
G-----------------------------------2-0-----------2-0-----|
D------------------------------------------------------2s-|
A---------------------------------------------------------|
E---------------------------------------------------------|
-
G---------------------------------------------------------|
D---------------------------------------------------------|
A---------------------------------------------------------|
E---------------------------------------------------------|








VERSE:
E-------------------------3----|
B-------------------------3----|
G-------------------------0----|
D---------55555-----------0----| x 3
A---7-5-7-------7-5-------2----|
E-0-----------------7-5-0-3----|
-
G------------------------------|
D---------5--5-----------------| x 3
A---7-5-7-------7-5------------|
E-0-----------------7-5-0-3----|




E-----------------------------------------|
B-----------------------------------------|
G-------------7-7-7-7-7-7-9---------------|
D---------5---7-7-7-7-7-7-9---------------|
A---7-5-7---7-5-5-5-5-5-5-7---------------|
E-0---------------------------------------|
-
G-----------------------------------------|
D---------5-------------------------------|
A---7-5-7---5---5-5-5-5-5-7---------------|
E-0---------------------------------------|

REPETE 3 TIMES


PRE-CHORUS:


E-0-0-0-0-0-0-0-0-0-0-0-0-0-0-0-0---|
B-1-1-1-1-1-1-1-1-1-1-1-1-1-1-1-1---|
G-2-2-2-2-2-2-2-2-2-2-2-2-2-2-2-2---|
D-2-2-2-2-2-2-2-2-2-2-2-2-2-2-2-2---|
A-0-0-0-0-0-0-0-0-0-0-0-0-0-0-0-0---|
E-0-0-0-0-0-0-0-0-0-0-0-0-0-0-0-0---|
-
G-----------------------------------|
D-----------------------------------|
A-0---0----0-0-0---0---0---0-0-0----|
E---------3-----3---------3-----3---|


E-------------------------3----|
B-------------------------3----|
G-------------------------0----|
D---------55555-----------0----| x 2
A---7-5-7-------7-5-------2----|
E-0-----------------7-5-0-3----|
-
G------------------------------|
D---------5--5-----------------| x 2
A---7-5-7-------7-5------------|
E-0-----------------7-5-0-3----|






E-0-0-0-0-0-0-0-0-0-0-0-0-0-0-0-0---|
B-1-1-1-1-1-1-1-1-1-1-1-1-1-1-1-1---|
G-2-2-2-2-2-2-2-2-2-2-2-2-2-2-2-2---|
D-2-2-2-2-2-2-2-2-2-2-2-2-2-2-2-2---|
A-0-0-0-0-0-0-0-0-0-0-0-0-0-0-0-0---|
E-0-0-0-0-0-0-0-0-0-0-0-0-0-0-0-0---|
-
G-----------------------------------|
D-----------------------------------|
A-0---0----0-0-0---0---0---0-0-0----|
E---------3-----3---------3-----3---|



E-3-3-3-3--------------------|
B-3-3-3-3----4444--4444--4---|
G-0-0-0-0--------------------|
D-0-0-0-0--------------------|
A-2-2-2-2--2-----2-----2-----|
E-3-3-3-3--------------------|
-
G----------------------------|
D----------------------------|
A----------------------------|
E-3-3-3-3--7-----7-----------|


CHORUS
E-----------------------------------------------------|
B-----------------------------------------------------|
G---9-9-9---9-9-9---9----11-11-11---11-11-11---11-----|
D---x-x-x---x-x-x---x----x--x--x----x--x--x----x------|
A---7-7-7---7-7-7---7----9--9--9----9--9--9----9------|
E-0--------0-------0----0---------0----------0--------|
-
G-----------------------------------------------------|
D-----------------------------------------------------|
A---7-7-7---7-7-7---7----5--5--5-----5--5--5----5-----|
E-0--------0-------0----0----------0----------0-------|



E--------------------------------------------------------------|
B--------------------------------------------------------------|
G---12-12-12----12-12-12----12-----14-14-14----14-14-14----14--|
D---x--x--x-----x--x--x-----x------x--x--x-----x--x--x-----x---|
A---10-10-10----10-10-10----10-----12-12-12----12-12-12----12--|
E-0-----------0-----------0------0-----------0-----------0-----| 
-
G--------------------------------------------------------------|
D--------------------------------------------------------------|
A---7--7--7------7--7--7----7-------5--5--5-----5--5--5-----5--|
E-0-----------0-----------0------0-----------0-----------0-----|

REPEAT CHORUS




Post Chorus

E--------------|
B--------------|
G--9-9---9-9---|
D--9-9---9-9---|
A--7-7---7-7---|
E--------------|
-
G--------------|
D--------------|
A--------------|
E--0-0---0-0---|


Verse:
E-------------------------3----|
B-------------------------3----|
G-------------------------0----|
D---------55555-----------0----| x 3
A---7-5-7-------7-5-------2----|
E-0-----------------7-5-0-3----|
-
G------------------------------|
D---------5--5-----------------| x 3
A---7-5-7-------7-5------------|
E-0-----------------7-5-0-3----|




E-----------------------------------------|
B-----------------------------------------|
G-------------7-7-7-7-7-7-9---------------|
D---------5---7-7-7-7-7-7-9---------------|
A---7-5-7---7-5-5-5-5-5-5-7---------------|
E-0---------------------------------------| 
-
G-----------------------------------------|
D---------5-------------------------------|
A---7-5-7---5---5-5-5-5-5-7---------------|
E-0---------------------------------------|
REPEAT


Pre Chorus:
E-0-0-0-0-0-0-0-0-0-0-0-0-0-0-0-0---|
B-1-1-1-1-1-1-1-1-1-1-1-1-1-1-1-1---|
G-2-2-2-2-2-2-2-2-2-2-2-2-2-2-2-2---|
D-2-2-2-2-2-2-2-2-2-2-2-2-2-2-2-2---|
A-0-0-0-0-0-0-0-0-0-0-0-0-0-0-0-0---|
E-0-0-0-0-0-0-0-0-0-0-0-0-0-0-0-0---|
-
G-----------------------------------|
D-----------------------------------|
A-0---0----0-0-0---0---0---0-0-0----|
E---------3-----3---------3-----3---|





E-------------------------3----|
B-------------------------3----|
G-------------------------0----|
D---------55555-----------0----| x 2
A---7-5-7-------7-5-------2----|
E-0-----------------7-5-0-3----|
-
G------------------------------|
D---------5--5-----------------| x 2
A---7-5-7-------7-5------------|
E-0-----------------7-5-0-3----|


E-0-0-0-0-0-0-0-0-0-0-0-0-0-0-0-0---|
B-1-1-1-1-1-1-1-1-1-1-1-1-1-1-1-1---|
G-2-2-2-2-2-2-2-2-2-2-2-2-2-2-2-2---|
D-2-2-2-2-2-2-2-2-2-2-2-2-2-2-2-2---|
A-0-0-0-0-0-0-0-0-0-0-0-0-0-0-0-0---|
E-0-0-0-0-0-0-0-0-0-0-0-0-0-0-0-0---|
-
G-----------------------------------|
D-----------------------------------|
A-0---0----0-0-0---0---0---0-0-0----|
E---------3-----3---------3-----3---|



E-3-3-3-3--------------------|
B-3-3-3-3----4444--4444--4---|
G-0-0-0-0--------------------|
D-0-0-0-0--------------------|
A-2-2-2-2--2-----2-----2-----|
E-3-3-3-3--------------------|
-
G----------------------------|
D----------------------------|
A----------------------------|
E-3-3-3-3--7-----7-----------|


Chorus:
E-----------------------------------------------------|
B-----------------------------------------------------|
G---9-9-9---9-9-9---9----11-11-11---11-11-11---11-----|
D---x-x-x---x-x-x---x----x--x--x----x--x--x----x------|
A---7-7-7---7-7-7---7----9--9--9----9--9--9----9------|
E-0--------0-------0----0---------0----------0--------|
-
G-----------------------------------------------------|
D-----------------------------------------------------|
A---7-7-7---7-7-7---7----5--5--5----5--5--5-----5-----|
E-0--------0-------0----0---------0----------0--------|


E--------------------------------------------------------------|
B--------------------------------------------------------------|
G---12-12-12----12-12-12----12-----14-14-14----14-14-14----14--|
D---x--x--x-----x--x--x-----x------x--x--x-----x--x--x-----x---|
A---10-10-10----10-10-10----10-----12-12-12----12-12-12----12--|
E-0-----------0-----------0------0-----------0-----------0-----| 
-
G--------------------------------------------------------------|
D--------------------------------------------------------------|
A---7--7--7-----7--7--7----7-------5--5--5-----5--5--5-----5---|
E-0-----------0-----------0------0-----------0-----------0-----|
REPEAT CHORUS


Bridge:
E-----------------0--0--0--0------------------0~--|
B-----------------0--0--0--0------------------0~--|
G-5-5-5-5-5-5-5-5-0--0--0--0-5-5-5-5-5-5-5-5--0~--|
D-5-5-5-5-5-5-5-5-2--2--2--2-5-5-5-5-5-5-5-5--2~--|
A-3-3-3-3-3-3-3-3-2--2--2--2-3-3-3-3-3-3-3-3--2~--|
E-----------------0--0--0--0------------------0~--|
-
G-------------------------------------------------|
D-------------------------------------------------|
A-3-3-3-3-3-3-3-3------------3-3-3-3-3-3-3-3------|
E-----------------0--0--0--0------------------0---|


Pre Solo: 

E-------------------------------------------|
B----3--3--3--3-------3--3--3--3------------|
G----------------------------------2b-r2-0--|
D-------------------------------------------|
A-------------------------------------------|
E-0---------------0-------------------------|
-
G-------------------------------------------|
D-------------------------------------------|
A-------------------------------------------|
E-0---------------0-------------------------|



E--------------------------------------0----|
B---3--3--3--3------3--3--3--3--------------|
G---------------------------------2b-4------|
D-------------------------------------------|
A-------------------------------------------|
E-0--------------0--------------------------|
-
G-------------------------------------------|
D-------------------------------------------|
A-------------------------------------------|
E-0--------------0--------------------------|



E-------------------------------------------|
B----3--3--3--3-------3--3--3--3------------|
G----------------------------------2b-r2-0--|
D-------------------------------------------|
A-------------------------------------------|
E-0---------------0-------------------------|
-
G-------------------------------------------|
D-------------------------------------------|
A-------------------------------------------|
E-0---------------0-------------------------|






E-3b5--3b5-0---------------0----------------------------|
B------------3p0-3b5----------3p0---------0--3p0--------|
G----------------------------------2b4-------------2p0--|
D-------------------------------------------------------|
A-------------------------------------------------------|
E-------------------------------------------------------|
-
G--------------------------------------------------------|
D--------------------------------------------------------|
A--------------------------------------------------------|
E-0------------------------------------------------------|



E-------------------------------------------|
B----3--3--3--3-------3--3--3--3------------|
G----------------------------------2b-r2-0--|
D-------------------------------------------|
A-------------------------------------------|
E-0---------------0-------------------------|
-
G-------------------------------------------|
D-------------------------------------------|
A-------------------------------------------|
E-0---------------0-------------------------|



E--------------------------------------0----|
B---3--3--3--3------3--3--3--3--------------|
G---------------------------------2b-4------|
D-------------------------------------------|
A-------------------------------------------|
E-0--------------0--------------------------|
-
G-------------------------------------------|
D-------------------------------------------|
A-------------------------------------------|
E-0--------------0--------------------------|



E-------------------------------------------|
B----3--3--3--3-------3--3--3--3------------|
G----------------------------------2b-r2-0--|
D-------------------------------------------|
A-------------------------------------------|
E-0---------------0-------------------------|
-
G-------------------------------------------|
D-------------------------------------------|
A-------------------------------------------|
E-0---------------0-------------------------|






E-------------------------------------------------------|
B--14-14-14-14b-14b-14b-14b-14b-14b-14b-14b-14b-14b~~---|
G--14-14-14-14b-14b-14b-14b-14b-14b-14b-14b-14b-14b~~---|
D-------------------------------------------------------|
A-------------------------------------------------------|
E-------------------------------------------------------|
Bar the G and B strings with 4th finger and pull down.

G-------------------------------------------------------|
D-------------------------------------------------------|
A-------------------------------------------------------|
E-------------------------------------------------------|


Verse Riff:
E-------------------------3----|
B-------------------------3----|
G-------------------------0----|
D---------55555-----------0----| x 3
A---7-5-7-------7-5-------2----|
E-0-----------------7-5-0-3----|
-
G------------------------------|
D---------5--5-----------------| x 3
A---7-5-7-------7-5------------|
E-0-----------------7-5-0-3----|


E-----------------------------------------|
B-----------------------------------------|
G-------------7-7-7-7-7-7-7---------------|
D---------5---7-7-7-7-7-7-7---------------|
A---7-5-7---7-5-5-5-5-5-5-5---------------|
E-0---------------------------------------|
-
G-----------------------------------------|
D---------5-------------------------------|
A---7-5-7---5---5-5-5-5-5-7---------------|
E-0---------------------------------------|


Solo:
E----------------------------------------------------------------------------------|
B------------131313------------------13p12----12-13--15b17-b17-b17-b17-b17r15------|
G---14p12h14--------14p12----12-14---------14--------------------------------14----|
D-------------------------14-------------------------------------------------------|
A-0--------------------------------------------------------------------------------|
E----------------------------------------------------------------------------------|
-
G-------------------------------------------------------------------------|
D-------------------------------------------------------------------------|
A-0-------0---------0---0---0--------0------0------------0---0---0--------|
E----------------0-------------0-----------------------0---------------0--|


E------------------------|
B------------------------|
G-----4s5s4--------------|
D---------------9s10s9---|
A--2---------------------|
E-----------7-7----------|
-
G------------------------|
D------------------------|
A--2--2------2--2---2----|
E---------0-----------0--|


E---------------------------------11--12~~~~~---|
B-------7-7-7-7---10-10-10-10--s12--------------|
G---------------8~------------------------------|
D---9-------------------------------------------|
A-----------------------------------------------|
E-----------------------------------------------|
The last note of this bar continues on as feedback into the chorus

G-----------------------------------------------|
D-----------------------------------------------|
A---------------------------------2--2---2-2----|
E-----------------------------------------------|


Chorus:
E-----------------------------------------------------|
B-----------------------------------------------------|
G---9-9-9---9-9-9---9----11-11-11---11-11-11---11-----|
D---x-x-x---x-x-x---x----x--x--x----x--x--x----x------|
A---7-7-7---7-7-7---7----9--9--9----9--9--9----9------|
E-0--------0-------0----0---------0----------0--------|
-
G-----------------------------------------------------|
D-----------------------------------------------------|
A---7-7-7---7-7-7---7----5--5--5----5--5--5-----5-----|
E-0--------0-------0----0---------0----------0--------|

E--------------------------------------------------------------|
B--------------------------------------------------------------|
G---12-12-12----12-12-12----12-----14-14-14----14-14-14----14--|
D---x--x--x-----x--x--x-----x------x--x--x-----x--x--x-----x---|
A---10-10-10----10-10-10----10-----12-12-12----12-12-12----12--|
E-0-----------0-----------0------0-----------0-----------0-----| 
-
G--------------------------------------------------------------|
D--------------------------------------------------------------|
A---7--7--7-----7--7--7----7-------5--5--5-----5--5--5-----5---|
E-0-----------0-----------0------0-----------0-----------0-----|
REPEAT CHORUS


Bridge:
E-----------------0--0--0--0----------------|
B-----------------0--0--0--0----------------|
G-5-5-5-5-5-5-5-5-0--0--0--0-5-5-5-5--7--4--|
D-5-5-5-5-5-5-5-5-2--2--2--2-5-5-5-5--7--4--|
A-3-3-3-3-3-3-3-3-2--2--2--2-3-3-3-3--5--2--|
E-----------------0--0--0--0----------------|
-
G-------------------------------------------|
D-------------------------------------------|
A-3-3-3-3-3-3-3-3------------3-3-3-3--5--4--|
E-----------------0--0--0--0----------------|

Intro Riff:
E-------------------------------------------|
B----3--3--3--3-------3—-3--3--3------------|
G----------------------------------2b-r2-0--|
D-------------------------------------------|
A-------------------------------------------|
E-0---------------0-------------------------|
-
G-------------------------------------------|
D-------------------------------------------|
A-------------------------------------------|
E-0---------------0-------------------------|





E--------------------------------------0----|
B---3--3--3--3------3--3--3--3--------------|
G---------------------------------2b-4------|
D-------------------------------------------|
A-------------------------------------------|
E-0--------------0--------------------------|
-
G-------------------------------------------|
D-------------------------------------------|
A-------------------------------------------|
E-0--------------0--------------------------|



E-------------------------------------------|
B----3--3--3--3-------3--3--3--3------------|
G----------------------------------2b-r2-0--|
D-------------------------------------------|
A-------------------------------------------|
E-0---------------0-------------------------|
-
G-------------------------------------------|
D-------------------------------------------|
A-------------------------------------------|
E-0---------------0-------------------------|

The End :D
~JOXICORN~

            
            
Suggest correction
Creating personal tab
Creating personal tab
You can edit any tab online and save it as your Personal.

You can edit, replace or remove any tab part or add personal notes – all changes will be seen only by you.

Personal tabs can be accessed anytime from any device, even offline.
Learn more »
Give kudos to tab author, rate the tab!
1 2 3 4 5
comments
print report bad tab
1 comment total.
0 reply
52b421a6 133 Nov 18, 2016 10:55 PM

E---------------------------------------------|
B----3--3--3--3-------3--3--3--3--------------|
G----------------------------------2b4--r2-0--|
D---------------------------------------------|
A---------------------------------------------|
E-0---------------0---------------------------|

Easier to follow and such

guest
You may want to rate the tab now too:
select rating
Wanna post a correction for this tab? Suggest correction