Oops, an error
Loading. Please wait.

Loaded Gun tab

version 1
version 1

Whole song

Interactive

3,419 views 3 this week
2 commentsread comments
1 2 3 4 5
x 4
add to favorites
×
Save as Personal and add changes to this tab that will be seen only by you. Learn more ›
×
You can save this tab as Personal to edit and correct it or add notes. All changes will be seen only by you. Learn more »
launch autoscroll
font size
0
reset
how to read this tab
guitar tuner
edit
Autoscroll
slow
fast
+/-
esc
set tempo
stop
Author
Difficulty
intermediate
Hey guys,

I'm fairly certain that this is at least 90% correct. It sounds pretty close anyway.

Enjoy, A-Rad.

Any Queries send to misspent_youth1.5@hotmail.com

Title: Loaded Gun
Artist: The Living End
Tabber: A-Rad

Tuning: Standard (from Low to High): EADGBE

Notation:
h - hammer on
p - pull off
x - string mute
\ - slide down
N.H. - natural harmonic
palm mute - palm mute (obviously)

Intro 1 - Uses echo and probably some other effects on the guitar

E|--------------------------------------------------------------|
B|--------------------------------------------------------------|
G|-5-----5-4-----4-2-----2-2----5--9------9-7-----7-5----5-4-2--|
D|-----5-------6-------2----------------10------9---------------|
A|--------------------------------------------------------------|
E|--------------------------------------------------------------|

Intro 2 - slight echo still used 

E|-8p0-5p0-8p0-5p0-8p0-3p0-7p0-3p0-5p0-3p0-5p0-3p0-5p0-3p0-7p0-3p0--|
B|------------------------------------------------------------------|
G|------------------------------------------------------------------|
D|------------------------------------------------------------------| x 7
A|------------------------------------------------------------------|
E|------------------------------------------------------------------|

E|--3p0-1p0-3p0-1p0-3p0-1p0-3p0-1p0--|
B|-----------------------------------|
G|-----------------------------------|
D|-----------------------------------|
A|-----------------------------------|
E|-----------------------------------|

Second guitar comes in after the fifth time through with the following

E|----------------------------------------|
B|----------------------------------------|
G|-2-----------------2--------------------|
D|-2----5-5-3----5-5-2----5-5-3----5-5-3--|
A|-0----5-5-3----5-5-0----5-5-3----5-5-3--|
E|------3-3-1----3-3------3-3-1----3-3-1--|

E|--------------1-------------3--|
B|--------------1-------------3--|
G|--------------2-------------0--|
D|--3-3-3-3-3-3-3-------------0--|
A|--3-3-3-3-3-3-3-------------2--|
E|--1-1-1-1-1-1-1-------------3--|

Main Riff

E|-------------------------|
B|-------------------------|
G|---5p4-4--5p4-4--4p5-----|
D|---7---7--7---7--7-------| x 3
A|-0---0---0--0--0---------|
E|-------------------------|

E|--5--5-5---5-5--|
B|--5--5-5---5-5--|
G|--5--5-5---5-5--|
D|--7--7-7---7-7--|
A|----------------|
E|----------------|

Played through twice

Verse 1 - Part A

E|----------------|
B|----------------|
G|--5p4-4--5p4-4--|
D|--7---7--7---7--| x 3
A|----------------|
E|----------------|

E|-------0--------|
B|-----1----------|
G|---2------------|
D|----------------|
A|----------------|
E|----------------|

Played through twice

Pre Chorus

E|--------------------------------|
B|-5------9------------------10---|
G|-5------9---------9--7-5-7-9----|
D|-5-(x8)-9-(x8)----10-9-7-9-7----|
A|-3------7---------0--0-0-0------|
E|--------------------------------|

E|------------------------------0-----3--0---|
B|-5------9---------------------1-----3--0---|
G|-5------9---------9--7-5-7----2-----4--1---|
D|-5-(x8)-9-(x8)----10-9-7-9----2-----5--2---|
A|-3------7---------0--0-0-0----0-----5--2---|
E|------------------------------------3--0---|

Chorus - Probably is using a flanger here

E|-0--0-xxxxxxxxx-0--0--0-xxxxxxxx---|
B|-1--1-xxxxxxxxx-1--1--1-xxxxxxxx---|
G|-2--2-xxxxxxxxx-2--2--2-xxxxxxxx---|
D|-2--2-xxxxxxxxx-2--2--2-xxxxxxxx---|
A|-0--0-xxxxxxxxx-0--0--0-xxxxxxxx---|
E|-----------------------------------|

E|-0--1--1-xxxxxxxxx-1--1--1-xxxxxxxx-111---|
B|-1--1--1-xxxxxxxxx-1--1--1-xxxxxxxx-111---|
G|-2--2--2-xxxxxxxxx-2--2--2-xxxxxxxx-222---|
D|-2--3--3-xxxxxxxxx-3--3--3-xxxxxxxx-333---|
A|-0--0--0-xxxxxxxxx-0--0--0-xxxxxxxx-000---|
E|------------------------------------------|

Played through twice

E|------------------5------------------------|
B|------------------5------------------------|
G|--5--------5------5------------------------|
D|--5-(x16)--5-(x8)------7------9-------9\---|
A|--3--------2-----------5-(x8)-7--(x4) 7\---|
E|-------------------------------------------|

Guitar in the background plays the following over and over

E|--8p0-10p0-12p0---|
B|------------------|
G|------------------|
D|------------------|
A|------------------|
E|------------------|

Main Riff

E|-------------------------|
B|-------------------------|
G|---5p4-4--5p4-4--4p5-----|
D|---7---7--7---7--7-------| x 3
A|-0---0---0--0--0---------|
E|-------------------------|

E|--5--5-5---5-5--|
B|--5--5-5---5-5--|
G|--5--5-5---5-5--|
D|--7--7-7---7-7--|
A|----------------|
E|----------------|

Played through twice

Verse 2

E|------------------------|
B|------------------------|
G|------------------------|
D|------------------------|
A|--5-(x many) -----------|
E|------------------------|
  |--- N.H. --|

E|-------0----0----------5\--|
B|-----1-------0h1p0-----5\--|
G|---2---------------2---5\--|
D|---------------------------|
A|---------------------------|
E|---------------------------|

E|------------------------|
B|------------------------|
G|------------------------|
D|------------------------|
A|--5-(x many) -----------|
E|------------------------|
  |--- N.H. --|

E|-------0----0------------|
B|-----1-------0h1p0-------|
G|---2---------------2-----|
D|-------------------------|
A|-------------------------|
E|-------------------------|

Pre Chorus

E|--------------------------------|
B|-5------9------------------10---|
G|-5------9---------9--7-5-7-9----|
D|-5-(x8)-9-(x8)----10-9-7-9-7----|
A|-3------7---------0--0-0-0------|
E|--------------------------------|

E|------------------------------0-----3--0---|
B|-5------9---------------------1-----3--0---|
G|-5------9---------9--7-5-7----2-----4--1---|
D|-5-(x8)-9-(x8)----10-9-7-9----2-----5--2---|
A|-3------7---------0--0-0-0----0-----5--2---|
E|------------------------------------3--0---|

Chorus

E|-0--0-xxxxxxxxx-0--0--0-xxxxxxxx---|
B|-1--1-xxxxxxxxx-1--1--1-xxxxxxxx---|
G|-2--2-xxxxxxxxx-2--2--2-xxxxxxxx---|
D|-2--2-xxxxxxxxx-2--2--2-xxxxxxxx---|
A|-0--0-xxxxxxxxx-0--0--0-xxxxxxxx---|
E|-----------------------------------|

E|-0--1--1-xxxxxxxxx-1--1--1-xxxxxxxx-111---|
B|-1--1--1-xxxxxxxxx-1--1--1-xxxxxxxx-111---|
G|-2--2--2-xxxxxxxxx-2--2--2-xxxxxxxx-222---|
D|-2--3--3-xxxxxxxxx-3--3--3-xxxxxxxx-333---|
A|-0--0--0-xxxxxxxxx-0--0--0-xxxxxxxx-000---|
E|------------------------------------------|

Played through twice

E|------------------5------------------------|
B|------------------5------------------------|
G|--5--------5------5------------------------|
D|--5-(x16)--5-(x8)------7------9-------9\---|
A|--3--------2-----------5-(x8)-7--(x4) 7\---|
E|-------------------------------------------|

Guitar in the background plays the following over and over

E|--8p0-10p0-12p0---|
B|------------------|
G|------------------|
D|------------------|
A|------------------|
E|------------------|

Bridge

E|-------------------------------|
B|-------------------------------|
G|--10-------------2----9--------|
D|--10-(x16)---5-2-2----9--------|
A|--8----------5-2-0----7--------|
E|-------------3-0---------------|

E|-------------------------------|
B|-------------------------------|
G|--10-------------2-------------|
D|--10-(x16)---5-2-2----2--------|
A|--8----------5-2-0----2--------|
E|-------------3-0------0--------|

E|-------------------------------|
B|-------------------------------|
G|--10-------------2----9--------|
D|--10-(x16)---5-2-2----9--------|
A|--8----------5-2-0----7--------|
E|-------------3-0---------------|

E|-------------------------3-----|
B|-------------------------0-----|
G|--10-------------2-------0-----|
D|--10-(x16)---5-2-2----2--0-----|
A|--8----------5-2-0----2--2-----|
E|-------------3-0------0--3-----|

E|-8p0-5p0-8p0-5p0-8p0-3p0-7p0-3p0-5p0-3p0-5p0-3p0-5p0-3p0-7p0-3p0--|
B|------------------------------------------------------------------|
G|------------------------------------------------------------------|
D|------------------------------------------------------------------| x 3
A|------------------------------------------------------------------|
E|------------------------------------------------------------------|

E|-----------111--3---|
B|---------11111--0---|
G|-------2222222--0---|
D|-3333333333333--0---|
A|-3333333333333--2---|
E|-1111111111111--3---|
|---palm muted--|

Grdually release palm mute

Chorus

E|-----------------------------------|
B|--5--5--5---55555-5--5--5--55555---|
G|-----------------------------------|
D|--2--2--2---22222-2--2--2--22222---|
A|--0--0--0---00000-0--0--0--00000---|
E|-----------------------------------|

E|----------------------------------|
B|-6--6--6---66666-6--6--6--66666---|
G|----------------------------------|
D|-3--3--3---33333-3--3--3--33333---|
A|-0--0--0---00000-0--0--0--00000---|
E|----------------------------------|

E|-----------------------------------|
B|--5--5--5---55555-5--5--5--55555---|
G|-----------------------------------|
D|--2--2--2---22222-2--2--2--22222---|
A|--0--0--0---00000-0--0--0--00000---|
E|-----------------------------------|

E|-----------------------------------|
B|-6--6--6---66666-6--6--6--xxxxxx---|
G|--------------------------xxxxxx---|
D|-3--3--3---33333-3--3--3--xxxxxx---|
A|-0--0--0---00000-0--0--0--xxxxxx---|
E|-----------------------------------|

E|------------------17----------------------|
B|------------------17----------------------|
G|--5--------5------17----------------------|
D|--5-(x16)--5-(x8)------7------9-------9\--|
A|--3--------2-----------5-(x8)-7--(x4) 7\--|
E|------------------------------------------|

Guitar in the background plays the following over and over

E|--8p0-10p0-12p0---|
B|------------------|
G|------------------|
D|------------------|
A|------------------|
E|------------------|

Outro

E|-------------------------|
B|-------------------------|
G|---5p4-4--5p4-4--4p5-----|
D|---7---7--7---7--7-------| x 3
A|-0---0---0--0--0---------|
E|-------------------------|

E|--5--5-5---5-5--|
B|--5--5-5---5-5--|
G|--5--5-5---5-5--|
D|--7--7-7---7-7--|
A|----------------|
E|----------------|

E|-------------------------|
B|-------------------------|
G|---5p4-4--5p4-4--4p5-----|
D|---7---7--7---7--7-------| x 3
A|-0---0---0--0--0---------|
E|-------------------------|

E|-----------------|
B|------1----------|
G|----2------------|
D|--3--------------|
A|-----------------|
E|-----------------|

End.

            
            
Suggest correction
Creating personal tab
Creating personal tab
You can edit any tab online and save it as your Personal.

You can edit, replace or remove any tab part or add personal notes – all changes will be seen only by you.

Personal tabs can be accessed anytime from any device, even offline.
Learn more »
comments
print report bad tab
2 comments total.
0 reply
Gretsch_Falcon 10 Aug 09, 2008 11:52 PM

I want to make love to you for posting this song!!!! hahha i cant stop playing it!!!!! thanksssssss heapsssss

0 reply
Gretsch_Falcon 10 Aug 12, 2008 12:12 AM

Hey iv just started listning to it closely and you may want to check your pre chorus, the chords are right but thats not how he plays it, he doesnt strum chords.

guest
You may want to rate the tab now too:
select rating
Wanna post a correction for this tab? Suggest correction