Oops, an error
Loading. Please wait.

Long Live The Weekend bass

version 1
version 1

Whole song

Interactive

985 views 1 this week
no commentswrite comment
1 2 3 4 5
1 last vote to show rating
add to favorites
×
Save as Personal and add changes to this tab that will be seen only by you. Learn more ›
×
You can save this tab as Personal to edit and correct it or add notes. All changes will be seen only by you. Learn more »
launch autoscroll
font size
0
reset
guitar tuner
edit
Autoscroll
slow
fast
+/-
esc
set tempo
stop
Difficulty
                                                 by St.Dunny
                            Long Live the Weekend     
                normal tuning
 verse 1 & 2

workin 4 a man that u dont understand so forget it
G|-----------------------------------------------------------------------|
D|-----------------------------------------------------------------------|
A|----------------------------------------------333333333333333333333----|
E|-----------------------------------------------------------------------|  

 |-----------------------------------------------------------------------|
 |-----------------------------------------------------------------------|
 |777777777777777777777777777773333333333333333333333333333333-----------|
 |-----------------------------------------------------------------------|x3

prechorus'
 |------------------------------------------------------------------------|
 |------------------------------------------------------------------------|
 |0-0-0-0-0-0-0-0-5-5-5-5-5-5-5-5-----------------2-2-2-2-3-3-3-3-5-5-6-6-|
 |--------------------------------0-0-0-0-0-0-0-0-------------------------|

chorus 1                           then             drumroll...
 |------------------------------|  |---------------------------------|
 |------------------------------|  |---------------------------5-----|
 |-77-7-77-22-2222-3333--3333-3-|  |3--3~-3--3~------------------5---|
 |------------------------------|x2|----------------0----------------|
chorus 2
 |------------------------------|  |---------------------------------|
 |------------------------------|  |---------------------------------|
 |-77-7-77-22-2222-3333--3333-3-|  |3--3~-3--3~------3--3~-3--3~-----|
 |------------------------------|x2|---------------------------------|

pre solo
  week in, week out
 |------------------------------------0-2-4-|
 |--------------------------------0-2-------|
 |----------------------------0-2-----------|
 |--------------------33333333--------------|x2
 week in week out    i dont care if i dont get paid.. 
 |----------------|   |--------------------------|
 |----------------|   |--------------------------|
 |----------------|   |-5~----3~-----5~------3~--|
 |555555555555555-|x2 |--------------------------|

solo same as chorus x2
 then pre chorus, final chorus then...
 |---------------------------| 
 |-5-5-----------------------|
 |-----5-5-7-7-2-2-3333333333|
 |---------------------------|x4
outro
 |-----------------------------|
 |-5~-----------------5~-----5-|
 |------2~---3~--5~------------|
 |-----------------------------|

            
            
Suggest correction
Creating personal tab
Creating personal tab
You can edit any tab online and save it as your Personal.

You can edit, replace or remove any tab part or add personal notes – all changes will be seen only by you.

Personal tabs can be accessed anytime from any device, even offline.
Learn more »
Give kudos to tab author, rate the tab!
1 2 3 4 5
comments
print report bad tab
guest
Wanna post a correction for this tab? Suggest correction