Oops, an error
Loading. Please wait.

Long Live The Weekend tab

version 1
version 1

Whole song

Interactive

3,830 views 3 this week
2 commentsread comments
1 2 3 4 5
x 3
add to favorites
×
Save as Personal and add changes to this tab that will be seen only by you. Learn more ›
×
You can save this tab as Personal to edit and correct it or add notes. All changes will be seen only by you. Learn more »
launch autoscroll
font size
0
reset
how to read this tab
guitar tuner
edit
Autoscroll
slow
fast
+/-
esc
set tempo
stop
                          LONG LIVE THE WEEKEND

5ironaudiorage (tabbed by THEE jason zarpellon)

/ = slide up
\ = slide down 
h = hammer on
p = pull off
b = half bend
^ =bend one fret
^^ = bend 2 frets
v = release bend
pm = palm mute
x = dead note

Have Fun:

Intro/Verse:
    
e--7-7-7-7-7--7-7-7-7-7-7--\----------------------------|
b--7-7-7-7-8--8-8-7-7-7-8--\----------------------------|
g--7-7-7-7-9--9-9-7-7-7-9--\--5--7--7-5--7-5-7-5-7b8-5--|
d--9-9-9-9-9--9-9-9-9-9-9--\--5--5--5-5--5-5-5-5-5---5--| x4
a--7-7-7-7-7--7-7-7-7-7-7--\--3--3--3-3--3-3-3-3-3---3--|
a-------------------------------------------------------|




Pre-Chorus:
             
e--0--0--0-0-0--2--2-2-2-2-2-2-2--0--0--0-0-0--2--2-2-2-2-2-2-2--|
b--1--1--1-1-1--3--3-3-3-3-3-3-3--0--0--0-0-0--3--3-3-3-3-3-3-3--|
g--2--2--2-2-2--2--2-2-2-2-2-2-2--0--0--0-0-0--4--4-4-4-4-4-4-4--|
d--2--2--2-2-2--0--0-0-0-0-0-0-0--2--2--2-2-2--4--4-4-4-4-4-4-4--|
a--0--0--0-0-0--------------------2--2--2-2-2--2--2-2-2-2-2-2-2--|
e---------------------------------0--0--0-0-0--------------------|

                               
e-------------------------------|
b--5--5-5-5-5-5-5------7--7--7--|
g--5--5-5-5-5-5-5------7--7--7--|
d--5--5-5-5-5-5-5--7-7-7--7--7--|
a--3--3-3-3-3-3-3--5-5-5--6--6--|
e-------------------------------|
                   pm.


Chorus:
     
e--7--7--7--7-7--2-2-2--2-2-2-2------------------------------|
b--8--8--8--8-8--3-3-3--3-3-3-3------------------------------|
g--9--9--9--9-9--4-4-4--4-4-4-4---5-5-5-5-4--5-5-5-5-4--4-4--|
d--9--9--9--9-9--4-4-4--4-4-4-4---5-5-5-5-5--5-5-5-5-5--5-5--| x2
a--7--7--7--7-7--2-2-2--2-2-2-2---3-3-3-3-3--3-3-3-3-3--3-3--|
e--0--0--0--0-0----------------------------------------------|



Post Chorus:
                                     
e------------------------0------3--2--|
b--5---5---5--5---5---5--0------3--3--|
g--5---5---5--5---5---5--0------0--2--|
d--5---5---5--5---5---5--2------0--0--|
a--3---3---3--3---3---3--2------2-----|
e------------------------0------3-----|


Verse 2: Same as 1st verse, but only played twice


Pre-Chorus


Chorus


Post Chorus:
                                              
e------------------------3-------|
b--5---5---5--5---5---5--5-------|
g--5---5---5--5---5---5--5-------|
d--5---5---5--5---5---5--5-------|
a--3---3---3--3---3---3--3-------|
e--------------------------------|



Pre-Solo:                                                                        

e--------------------------------------------------------------------|
b--------------------------------------------------------------------|
g-------------------------------------------------------------0-2/4--|
d---------------------------------------------------------0-2--------| x2
a------7-7-----7-7-----7-7-----7-7--------------------0-2------------|
e--0-0-----0-0-----0-0-----0-0------3-3-3-3-3-3-3-3-3----------------|


                                                            
e------5------5------5------5------5------5------5------5--|
b------5------5------5------5------5------5------5------5--|
g------5------5------5------5------5------5------5------5--|
d--7-7-7--7-7-7--7-7-7--7-7-7--7-7-7--7-7-7--7-7-7--7-7-7--|
a--7-7-7--7-7-7--7-7-7--7-7-7--7-7-7--7-7-7--7-7-7--7-7-7--|
e--5-5-5--5-5-5--5-5-5--5-5-5--5-5-5--5-5-5--5-5-5--5-5-5--|
   pm.    ...    ...    ...    ...    ...    ...    ...

        
e--------------------------------------|
b--7--------5--------7--------5--------|
g--7--------5--------7--------5--------|
d--7--------5--------7--------5--------|
a--5--------3--------5--------3--------|
e--------------------------------------|



Solo: Rythym plays verse                                                                 

e--0--0-0-0-0-0-0-0-0-0-0-0-0-0-0-|-0------------------------------|
b--0--0-0-0-0-0-0-0-0-0-0-0-0-0-0-|-0------------------------------|
g--3^-^-^-^-^-^-^-^-^-^-^-^-^-^-^-|-3^-2p0-------------------------|
d---------------------------------|--------2~---0-2~-0-2-0-2-0-2-0-|
a---------------------------------|--------------------------------|
e---------------------------------|--------------------------------|
   ^Keep string bent

                     
e-------0----0------0----0----------------------------------|
b-----0----0------0----0---0-----3/5------------------------|
g--/4----2-----/4-----2----2/4---4/5--7--7-5--7-5-7-5-7b-5--|
d-------------------------------------5--5-5--5-5-5-5-5--5--|
a-------------------------------------3--3-3--3-3-3-3-3--3--|
e-----------------------------------------------------------|



Pre-Chorus: Lead bit over pre chorus

e------------------------------------------------------------|
b--5-------7-7-----------------3-3--0-0--1-1-------3-3--4-4--|
g-----7-7-------5-5--4-4--0-0-----------------0-0------------|
d------------------------------------------------------------|
a------------------------------------------------------------|
e------------------------------------------------------------|


Chorus


Outro:

e--3--2-2--0-0--2-2-------------------------------------|
b--3--3-3--0-0--3-3----5-5-5-5-5-5-5-5-5-5-5-5-5-5-5-5--|
g--4--2-2--0-0--4-4----5-5-5-5-5-5-5-5-5-5-5-5-5-5-5-5--|
d--5--0-0--2-2--4-4----5-5-5-5-5-5-5-5-5-5-5-5-5-5-5-5--|
a----------------------3-3-3-3-3-3-3-3-3-3-3-3-3-3-3-3--|
e-------------------------------------------------------|


e--3----0----2---------3--------3----|
b--3----3----3----5----3--------3----|
g--0----2----4----5----4--------4----|
d--0----0----4----5----5--------5----|
a--2---------2----3----5--------5----|
e--3-------------------3--------3----|

            
            
Suggest correction
Creating personal tab
Creating personal tab
You can edit any tab online and save it as your Personal.

You can edit, replace or remove any tab part or add personal notes – all changes will be seen only by you.

Personal tabs can be accessed anytime from any device, even offline.
Learn more »
Give kudos to tab author, rate the tab!
1 2 3 4 5
comments
print report bad tab
2 comments total.
0 reply
whitehouseffect 10 Oct 17, 2006 01:49 AM

I'm totally convinced (could be wrong tho) that the intro is actually

e--7-7-7-7-7--7-7-7-7-7-7--\----------------------------|
b--7-7-7-7-8--8-8-7-7-7-8--\-----7--7----7---7---7b8----|
g--7-7-7-7-9--9-9-7-7-7-9--\-----7--7----7---7---7b8----|
d--9-9-9-9-9--9-9-9-9-9-9--\--5--5--5-5--5-5-5-5-5---5--| x4
a--7-7-7-7-7--7-7-7-7-7-7--\--3--3--3-3--3-3-3-3-3---3--|
a-------------------------------------------------------|

A little tricky but if you bar the 7's with your pinky it works - sweet tab otherwise!

0 reply
Shorty_rox_06 492 Oct 25, 2006 02:06 AM

awsum job
tle rule

guest
You may want to rate the tab now too:
select rating
Wanna post a correction for this tab? Suggest correction