Oops, an error
Loading. Please wait.

Monkey tab

337 views 9 this week
no commentswrite comment
1 2 3 4 5
x 3
add to favorites
×
Save as Personal and add changes to this tab that will be seen only by you. Learn more ›
×
You can save this tab as Personal to edit and correct it or add notes. All changes will be seen only by you. Learn more »
launch autoscroll
font size
0
reset
how to read this tab
guitar tuner
edit
Autoscroll
slow
fast
+/-
esc
set tempo
stop
Monkey - The Living End

Tabbed by Robert Anastasi.
This is a pretty simple song but great to play.

Standard Tuning

[Intro]
e|--------------------------|
B|--------------------------|
G|--------------------------|
D|--2--2--0h2--2--0---------| x4
A|--0--0--0----0--0---------|
E|--------------------------|

[Verse 1]
e|--------------------------|
B|--------------------------|
G|--------------------------|
D|--2--2--0h2--2--0---------| x32 (drums and bass come in after 16 bars)
A|--0--0--0----0--0---------|
E|--------------------------|

[Chorus]
e|------------------------------------------------------------------------|
B|------------------------------------------------------------------------|
G|-2-2-2-2-2-2-2-2--------------------------------------------------------|
D|-2-2-2-2-2-2-2-2---2-2-2-2-2-2-2-2---2-2-2-2-2-2-2-2---2-2-2-2-2-2-2-2--| x2
A|-0-0-0-0-0-0-0-0---0-0-0-0-0-0-0-0---0-0-0-0-0-0-0-0---0-0-0-0-0-0-0-0--|
E|-------------------3-3-3-3-3-3-3-3---2-2-2-2-2-2-2-2---1-1-1-1-1-1-1-1--|

[Interlude]
e|--------------------------|
B|--------------------------|
G|--------------------------|
D|--2--2--0h2--2--0---------| x4
A|--0--0--0----0--0---------|
E|--------------------------|

[Verse 2]
e|--------------------------|
B|--------------------------|
G|--------------------------|
D|--2--2--0h2--2--0---------| x16
A|--0--0--0----0--0---------|
E|--------------------------|

[Chorus]
e|------------------------------------------------------------------------|
B|------------------------------------------------------------------------|
G|-2-2-2-2-2-2-2-2--------------------------------------------------------|
D|-2-2-2-2-2-2-2-2---2-2-2-2-2-2-2-2---2-2-2-2-2-2-2-2---2-2-2-2-2-2-2-2--| x2
A|-0-0-0-0-0-0-0-0---0-0-0-0-0-0-0-0---0-0-0-0-0-0-0-0---0-0-0-0-0-0-0-0--|
E|-------------------3-3-3-3-3-3-3-3---2-2-2-2-2-2-2-2---1-1-1-1-1-1-1-1--|

[Lead break] (Chorus Riff in background)
e|------5~--------5~--------5~-------5--8--8b9r--5~-------------|
B|--8b9-------8b9-------8b9-------8-----------------------------|
G|--------------------------------------------------------------|
D|--------------------------------------------------------------|
A|--------------------------------------------------------------|
E|--------------------------------------------------------------|

e|-------------17---------------------17------------------------|
B|---------17------20p17----------17------20p17-------20b22-----|
G|--19b21------------------19b21-----------------19-------------|
D|--------------------------------------------------------------|
A|--------------------------------------------------------------|
E|--------------------------------------------------------------|

e|-----------17--20--20brp17------------------------------------|
B|--17h20---------------------20~-------------------------------|
G|------------------------------------------------5b6-----------|
D|-----------------------------------------5--7--------7p5h7~---|
A|------------------------------------5h7-----------------------|
E|--------------------------------------------------------------|

e|-------------------------------|
B|-------------------------------|
G|--------------5b6--------------|
D|--------5--7-------7p5/3~------|
A|---5h7-------------------------|
E|-------------------------------|

[Verse 3] 
e|--------------------------|
B|--------------------------|
G|--------------------------|
D|--2--2--0h2--2--0---------| x8
A|--0--0--0----0--0---------|
E|--------------------------|

 (Alternate Chords: Play 16ths, pluck with thumb and 1st finger)
e|---------------------------------------------------------------------------|
B|---------------------------------------------------------------------------|
G|---------------------------------------------------------------------------|
D|--2222222222222222--2222222222222222--2222222222222222--2222222222222222---|
A|--0000000000000000--xxxxxxxxxxxxxxxx--xxxxxxxxxxxxxxxx--xxxxxxxxxxxxxxxx---|
E|--------------------3333333333333333--2222222222222222--1111111111111111---|

[Chorus]
e|------------------------------------------------------------------------|
B|------------------------------------------------------------------------|
G|-2-2-2-2-2-2-2-2--------------------------------------------------------|
D|-2-2-2-2-2-2-2-2---2-2-2-2-2-2-2-2---2-2-2-2-2-2-2-2---2-2-2-2-2-2-2-2--| x2
A|-0-0-0-0-0-0-0-0---0-0-0-0-0-0-0-0---0-0-0-0-0-0-0-0---0-0-0-0-0-0-0-0--|
E|-------------------3-3-3-3-3-3-3-3---2-2-2-2-2-2-2-2---1-1-1-1-1-1-1-1--|

[Ending] (Chorus Riff in background)
e|------5~--------5~--------5~------5--8--8b9r--5~---|
B|--8b9-------8b9-------8b9------8-------------------|
G|---------------------------------------------------|
D|---------------------------------------------------| x2
A|---------------------------------------------------|
E|---------------------------------------------------|

[Outro]
e|--------------------------|
B|--------------------------|
G|--------------------------|
D|--2--2--0h2--2--0---------| x4
A|--0--0--0----0--0---------|
E|--------------------------|

~ = vibrato
h = hammer-on
p = pull-off
b = bend
r = release bend
/ = slide

            
            
Suggest correction
Creating personal tab
Creating personal tab
You can edit any tab online and save it as your Personal.

You can edit, replace or remove any tab part or add personal notes – all changes will be seen only by you.

Personal tabs can be accessed anytime from any device, even offline.
Learn more »
Give kudos to tab author, rate the tab!
1 2 3 4 5
comments
print report bad tab
guest
You may want to rate the tab now too:
select rating
Wanna post a correction for this tab? Suggest correction