Oops, an error
Loading. Please wait.

Prisoner Of Society bass

version 2
version 2

Whole song

Interactive

3,098 views 1 this week
no commentswrite comment
1 2 3 4 5
2 more votes to show rating
add to favorites
×
Save as Personal and add changes to this tab that will be seen only by you. Learn more ›
×
You can save this tab as Personal to edit and correct it or add notes. All changes will be seen only by you. Learn more »
launch autoscroll
font size
0
reset
guitar tuner
backing track
0:00
0:00
edit
Autoscroll
slow
fast
+/-
esc
set tempo
stop
Author
Song: Prisoner of Society
Band: The Living End
Tabber: Madagascar
Email: lil_airforce_midget@hotmail.com

/ = slide up
 = slide down
~ = ring

This may not be 100% correct, but it fits in with the song. Any corrections just email me. =D
Listen for the timing, etc...

Intro
g|---------------------------------|
d|---------------------------------| x4
a|---------------------------------|
e|-0-0-0-3-0-0-5-0-0-7-0-0-5-3-5-3-|

Pre-Verse
g|---------------------|
d|---------------------| x4
a|-----------55-5-77-7-|
e|-55-5-88-8-----------|

Verse 1
g|--------------------|
d|--------------------|
a|-0000-0000-00000000-|
e|--------------------|

g|--------------------------------------|
d|--------------------------------------|
a|-0000-0000-00000002-333333/7-55555557-|
e|--------------------------------------|

g|--------------------|
d|--------------------|
a|-0000-0000-00000000-|
e|--------------------|

Every first zero is accented.

Chorus 1
g|---------|     g|---------|     g|---2-5-2-|
d|-----2---| x4  d|---2-5-2-| x4  d|-3-------| x4
a|-0-3---3-|     a|-3-------|     a|---------|
e|---------|     e|---------|     e|---------|

g|-------------------|
d|---------7---------|
a|---7---7---7-------|
e|-5---5-------5-575-|

g|---------------------------------------------------------------------|
d|-----------------8888888888888883333333533333335-2222222222222222----|
a|-555555555555557-----------------------------------------------------|
e|---------------------------------------------------------------------|

Bridge
g|------------------------------------------------------------------|
d|---------------------------------0-0-1-1-0-0-0-0------------------|
a|-0-0-1-1-0-0-0-0-0-0-1-1-0-0-0-0------------------0-0-1-1-0-0-0-0-|
e|------------------------------------------------------------------|

g|------------|
d|-2-2-3-3-2~-|
a|------------|
e|------------|

Solo
g|----------------------------------------------------------|
d|----------------------------------------------------------|
a|-0000-0000-00000000-0000-0000-00000000-5555-5555-55555555-|
e|----------------------------------------------------------|

g|------------------------------------------------------------------|
d|--------------------22222222222222222222222222222222222222222222~-|
a|-0000-0000-00000000-----------------------------------------------|
e|------------------------------------------------------------------|

Again every first note is accented.
Keep pumping the 2 until the solo finishes then it rings.

Verse 2
g|---------------------------------------------------------|
d|---------------------------------------------------------|
a|-0-0-0-000-0-00-00-0-0-0-000-0-00-02-3-3-3-3/7-5-5-5-5/7-|
e|---------------------------------------------------------|

g|-------------------|
d|-------------------|
a|-0-0-0-000-0-00-00-|
e|-------------------|

This part is staccato except for the little pumps and slides in between.

Outro (Chorus 2)
g|------------------------------------------------------------------|
d|----------------------------------33-333-333-333-3----------------|
a|-000-000-000-000-033-333-333-333-3----------------000000000000000-|
e|------------------------------------------------------------------|

g|-----------------------------------------------------------|
d|--------------8-8-8-888-83-3-3-3-5333-5-2222222222222222---|
a|-5-5-5-555-57----------------------------------------------|
e|-----------------------------------------------------------|

g|------------------------------------------|
d|------------------------------------------|
a|------------------------------------------|
e|-0000000000000000000000000000000000000000-|

Keep pumping the E till the end.

Order ~
Intro
Pre-verse
Verse 1    x2
Chorus 1
Intro
Verse 1
Chorus 1
Bridge
Solo
Verse 2
Outro
Suggest correction
Creating personal tab
Creating personal tab
You can edit any tab online and save it as your Personal.

You can edit, replace or remove any tab part or add personal notes – all changes will be seen only by you.

Personal tabs can be accessed anytime from any device, even offline.
Learn more »
Give kudos to tab author, rate the tab!
1 2 3 4 5
comments
print report bad tab
guest
You may want to rate the tab now too:
select rating
Wanna post a correction for this tab? Suggest correction