Oops, an error
Loading. Please wait.

Prisoner Of Society bass

version 3
version 3

Whole song

Interactive

9,339 views 6 this week
3 commentsread comments
1 2 3 4 5
x 8
add to favorites
×
Save as Personal and add changes to this tab that will be seen only by you. Learn more ›
×
You can save this tab as Personal to edit and correct it or add notes. All changes will be seen only by you. Learn more »
launch autoscroll
font size
0
reset
guitar tuner
backing track
0:00
0:00
edit
Autoscroll
slow
fast
+/-
esc
set tempo
stop
Author
Difficulty
                       -------PRISONER OF SOCIETY--------
                             Tabbed By Moonpie/Mikey B



Intro (a)
G|-----------------------------------------------------------------------------|
D|-----------------------------------------------------------------------------|
A|--7-------------------------------(x4)---------------------------------------|
E|----0-0-4-0-0-5-0-0-6-0-0-5-3-5----------------------------------------------|

  Intro (b)
G|-----------------------------------------------------------------------------|
D|-----------------------------------------------------------------------------|
A|-----------3-3--3-5-5--5-7-7--7-----------(x4)-------------------------------|
E|----5-5--5-------------------------------------------------------------------|
  
  VERSE
G|-----------------------------------------------------------------------------|
D|-----------------------------------------------------------------------------|
A|------------------3-3-3-3-3-3-3-3--5-5-5-5-5-5-5-5----------------------(x2)-|
E|-5-5-5-5-5-5-etc.-----------------------------------5-5-5-5-5-5-etc.---------|

  
  CHORUS       "Coz I'm a brat"       "I talk back"
G|-----------------------------------------------------------------------------|
D|--------------------------------------2-5-2---2-5-2---2-5-2---2-5-2----------|
A|--0-3-0-3-0-3-0-3-0-3-0-3-0-3-0-3---3-------3-------3-------3----------------|
E|-----------------------------------------------------------------------------|

     "anything"             "you"      "say"             "count to three"
G|----2-5-2---2-5-2---2-2----0-0-0-0---2---2---2---2---------------------------|
D|--3-------3-------3-----3--------------2---2---2---2----0-0-0-0-0-0-0-0------|
A|-----------------------------------------------------------------------------|
E|-----------------------------------------------------------------------------|
   
   "emergency"     "enemy"           "society"
G|--3-3-3-3-3-3-2--------------------------------------------------------------|
D|------------------3-3-3-5-3-3-3-5--2-2-2-2-2-2-2-2---------------------------|
A|-----------------------------------------------------------------------------|
E|-----------------------------------------------------------------------------|
  

  BACK TO INTRO (a) (x2)

  VERSE

  CHORUS

  PRE SOLO
G|-----------------------------------------------------------------------------|
D|-----------------------------------0-0-1-1-0-0-0-0-----------------2-2-3-3-2-|(let ring)
A|-0-0-1-1-0-0-0-0--0-0-1-1-0-0-0-0------------------0-0-1-1-0-0-0-0-----------|
E|-----------------------------------------------------------------------------|

  SOLO (extremely hard to hear the bass) just play A and D if you prefer
G|-----------------------------------------------------------------------------|
D|--------------------------3--1--0----0-1--(x2)-------------------------------|
A|--3--1--0----0-1--(x4)-------------3------------3--1--0----0-1-(x2)----------|
E|-----------3---------------------------------------------3-------------------|

  LEAD UP TO FINAL VERSE
G|-----------------------------------------------------------------------------|
D|--2-3-5-3-(x6)---2-2-2-2-2-2-2-2---------------------------------------------|
A|-----------------------------------------------------------------------------|
E|-----------------------------------------------------------------------------|

  LAST VERSE 
G|-----------------------------------------------------------------------------|
D|-----------------------------------------------------------------------------|
A|-----------------------------------3-3-3-7-5-5-5-7--------------------(x2)---|
E|-5-5-5-5-5-5-5-5555-5-5-5-5-5-5-5------------------5-5-5-5-5-5-5555----------|

   
  LAST CHORUS                 "say"           "count to three"   "emergency"   
G|-----------------------------------------------------------------------------|
D|-----------------------------------------------------------------------------|
A|---PAUSE FOR GUITAR--------------------------5-5-5---5----------1-1-1---1----|
E|-----------------------------5-5-5555555-------------------------------------|

   "enemy"
G|-----------------------------------------------------------------------------|
D|--3-3-3---3------------------------------------------------------------------|
A|-----------------------------------------------------------------------------|
E|-----------------------------------------------------------------------------|
 
  OUTRO "just a prisoner of society"                  
G|-----------------------------------------------------------------------------|
D|--------------------------2-2-2-2-3-3-3-3-(x4)-------------------------------|
A|-----------------------------------------------------------------------------|
E|------------------------------------------------0-0-0-1-(x7)-0---------------|


OWWWWWW THIS SO ROCKS OUT THE HOUSE.....
EVEN STILL TO THIS DAY!!!
Enjoy dudes!

            
            
Suggest correction
Creating personal tab
Creating personal tab
You can edit any tab online and save it as your Personal.

You can edit, replace or remove any tab part or add personal notes – all changes will be seen only by you.

Personal tabs can be accessed anytime from any device, even offline.
Learn more »
comments
print report bad tab
3 comments total.
0 reply
krumpinjugger 20 Apr 12, 2008 12:16 AM

very nice tab.very clear easy to understand.i like it how you have the key lyrics above so its hard to get lost :)

5/5

0 reply
mickyg 10 Aug 22, 2008 06:23 PM

great tab i think its spot on an a awesome song good work 5/5

0 reply
BroDD 368 Nov 26, 2009 02:40 AM

I don't get the solo.. when I try to play it just sounds so wrong :/
I'm not saying the tab is wrong, but it just sounds weird when I play it.. I can't even hear exactly HOW the bass goes.. someone give me some help? XD

guest
You may want to rate the tab now too:
select rating
Wanna post a correction for this tab? Suggest correction