Oops, an error
Loading. Please wait.

Second Solution bass

version 2
version 2

Whole song

Interactive

3,810 views 15 this week
2 commentsread comments
1 2 3 4 5
x 9
add to favorites
×
Save as Personal and add changes to this tab that will be seen only by you. Learn more ›
×
You can save this tab as Personal to edit and correct it or add notes. All changes will be seen only by you. Learn more »
launch autoscroll
font size
0
reset
guitar tuner
edit
Autoscroll
slow
fast
+/-
esc
set tempo
stop
Author
Difficulty
                                    -----Second Solution-----
                                     Tabbed by Moonpie/Mikey B


I've looked at everyones BASS tab on this song.....And they all suck!
No offence of anything.....I'm just sick of it....
So i decided to do this tab with no False bits at all!


Intro (a)                   "OI"
G|---------------------------------------------------------------------------------|
D|---0-4-4-0-----------------------------------------------------------------------|
A|-2----------(x7)------2-2-2------------------------------------------------------|
E|---------------------------------------------------------------------------------|
  
  INTRO (b)
G|---------------------------------------------------------------------------------|
D|---------------------------------------------------------------------------------|
A|-2-2---------3-3----(x4)---------------------------------------------------------|
E|-----2-2-3-3---------------------------------------------------------------------|

  Verse
G|---------------------------------------------------------------------------------|
D|---------------------------------------------------------4-2-0-------------------|
A|-2-2-2-2-2-2-3-----------2-0-------0-2-2-----------------------2-0---------------|
E|---------------2--(x3)-------3-2-3-------2-2-2-2-2-2-2-2------------3-2-2--------|

  CHORUS 1
        "I wanna know"   "I get death row"  "is there a"      "solution"
G|---------------------------0-4-0---0---------------------------------------------|
D|---------0-4-0---0-4-0---2-------2---2-0------0-4-0---0-2-3--4-4-----4-5-4-2-----|
A|-------2-------2----------------------------2-------2------------4-4-------------|
E|---------------------------------------------------------------------------------|
   
  "I wanna say"  "is will"   "I die  today"    "or will i get"
G|-----------------4--2---------------------7--------------------------------------|
D|---0-4-0--------------------5-5-5-4---4-7-------4-4-4-2-4------------------------|
A|-2-------2-2------------------------5-------------------------5-4----------------|
E|---------------------------------------------------------------------------------|

  BACK TO INTRO (a) but only play first bit 3 times for album version

  VERSE

  CHORUS 2
         "I wanna know"   "I get death row"  "is there a"      "solution"
G|---------------------------0-4-0---0---------------------------------------------|
D|---------0-4-0---0-4-0---2-------2---2-0------0-4-0---0-2-3--4-4-----4-5-4-2-----|
A|-------2-------2----------------------------2-------2------------4-4-------------|
E|---------------------------------------------------------------------------------|
   
  "I wanna say" "is will" "I die" "today"  "or will i get" "Soultion"
G|----------------4--2------------------7-------------------4-4-4-4----------------|
D|---0-4-0-----------------5-5-5-4--4-7-----4-4-4-2-4------------------------------|
A|-2-------2-2---------------------5-----------------------2-2-2-2----2-0------0-2-|
E|------------------------------------------------------------------------3-2-3----|

  
  SOLO
G|---------------------------0-4-0---0---------------------------------------------|
D|---------0-4-0---0-4-0---2-------2---2-0------0-4-0---0-2-3--4-4-----4-5-4-2-----|
A|-------2-------2----------------------------2-------2------------4-4-------------|
E|---------------------------------------------------------------------------------|
   
G|-----------------4--2---------------------7---------------------------4-4--PAUSE-|
D|---0-4-0--------------------5-5-5-4---4-7-------------4--------------------------|
A|-2-------2-2------------------------5-------------------4------------------------|
E|---------------------------------------------2-2-2-2----------2-2-2-2------------|

G|--4-4---------5-5--4-4---------5-5-----------------------------------------------|
D|------4-4-5-5----------4-4-5-5---------------------------------------------------|
A|---------------------------------------------------------------------------------|
E|---------------------------------------------------------------------------------|

  VERSE

  CHORUS 3
         "I wanna know"   "I get death row"  "is there a"      "solution"
G|---------------------------0-4-0---0---------------------------------------------|
D|---------0-4-0---0-4-0---2-------2---2-0------0-4-0---0-2-3--4-4-----4-5-4-2-----|
A|-------2-------2----------------------------2-------2------------4-4-------------|
E|---------------------------------------------------------------------------------|
   
  "I wanna say" "is will" "I die" "today"  "or will i get" 
G|----------------4--2------------------7------------------------------------------|
D|---0-4-0-----------------5-5-5-4--4-7-----4-4-4-2-4-(let ring)-------------------|
A|-2-------2-2---------------------5-----------------------------------------------|
E|---------------------------------------------------------------------------------|

  OUTRO 
       "second soultion" "second solution"  "second soultion" "second solution"
G|---------------------------------------------------------------------------------|
D|----------------------------------------------------5--4-------------------------|
A|--------2-----------------2------5---4------2-3-5--------------2------5---4------|
E|--------------3--2-------------3---2--------------------------------3---2--------|

   "second   solution"         "second solution"
G|---------------------------------------------------------------------------------|
D|---------------------------------0-4--5-5-4-4--(x3)------------------------------|
A|--2-2-2-2--------------------2-2----------------------2-0-------0-2--------------|
E|------------3-3-2-2--(x4)---------------------------------3-2-3------------------|


AND THAT IS HOW ITS REALLLY done!
thank u!

            
            
Suggest correction
Creating personal tab
Creating personal tab
You can edit any tab online and save it as your Personal.

You can edit, replace or remove any tab part or add personal notes – all changes will be seen only by you.

Personal tabs can be accessed anytime from any device, even offline.
Learn more »
comments
print report bad tab
2 comments total.
-1 reply
FidoFletch 52 Aug 26, 2007 05:55 AM

Are you sure about this tab?

+2 reply
ratmblink123 70 Jun 13, 2008 06:12 PM

Great tab, man.
Finally, a good one.

guest
You may want to rate the tab now too:
select rating
Wanna post a correction for this tab? Suggest correction