Oops, an error
Loading. Please wait.

Strange bass

787 views 1 this week
2 commentsread comments
1 2 3 4 5
x 3
add to favorites
×
Save as Personal and add changes to this tab that will be seen only by you. Learn more ›
×
You can save this tab as Personal to edit and correct it or add notes. All changes will be seen only by you. Learn more »
launch autoscroll
font size
0
reset
guitar tuner
edit
Autoscroll
slow
fast
+/-
esc
set tempo
stop
Author
Difficulty
                              ----STRANGE----
                              The Living End

Tabbed By : mucho-mum
Email: mucho_mum@hotmail.ocm
Tuning: Standard

| /  slide up
| \  slide down
| h  hammer-on
| p  pull-off
| ~  vibrato
| +  harmonic
| x  Mute note


If you have any thought or suggestions on this tab please leave a comment or email me! thanks!

Intro:
G-----------------------------------------------------------|
D-----------------------------------------------------------|    (Reapeat Until
A-------------------2--2-----3---3--------------------------|     Pre-Chorus)
E---3---3---3--3--------------------------------------------|


Pre-Chorus:

G---------------------------------|
D---------------------------------|        (reapeat until)
A--2---2---2---2----3--3--3--3----|
E---------------------------------|


G----------------------------------|
D----------------------------------|
A---0--1---0--1---0-1-0-1-0---0--0-|
E----------------------------------|

Chorus:

G------------------------------------------------------|
D------------------------------------------------------|
A---7---7---7--7---------------------------------------|
E-------------------7---7---7--7-----5---5---5--5------|


G------------------------------------------------------|
D------------------------------------------------------|
A-----7---7---7--7-------------------------------------|
E-------------------7---7---7--7--9---9---9-----4---4--|

G------------------------------------------------------|
D------------------------------------------------------|
A----------------------------7----6---4---2---0----2---|
E-4---4---4-----5--5--5--5-----------------------------|

---Then this is a little funny part which i couldn't auite work out---
Then it goes back into the.....

Intro

Pre-Chorus

Chorus

Weird funny part

Jazz Section:


G--------------------------------------------------------|
D--------------------------------------------------------|
A--------------------------------------------------------|
E--9-------9---9--9--9-----8--------8----8---8--8--8-----|

G--------------------------------------------------------|
D--------------------------------------------------------|
A--------------------------------------------------------|
E---7-----7--7---7--7--7----------7-----7---7----7--7--7-|

Just Reapeat this part as many times as possible until there's that big chord......

G-------------------------------------------------|
D-------------------------------------------------|
A---7---------7----6---4------2-------------------|
E-------------------------------------------------|

And the solo continues.....

Play the same notes that You played in the chorus here and then that's it!

Thanks for checking out this tab!
If u have any suggestions or anything please leav a comment or email me!
Cheers!

============================================================================
Suggest correction
Creating personal tab
Creating personal tab
You can edit any tab online and save it as your Personal.

You can edit, replace or remove any tab part or add personal notes – all changes will be seen only by you.

Personal tabs can be accessed anytime from any device, even offline.
Learn more »
Give kudos to tab author, rate the tab!
1 2 3 4 5
comments
print report bad tab
2 comments total.
0 reply
harveybrad93 10 May 26, 2007 10:23 PM

That was a cool bass tab

0 reply
TLE Bass Player 52 Apr 04, 2010 05:05 AM

great song for a beginner to learn. great tab and great simple bass line

guest
You may want to rate the tab now too:
select rating
Wanna post a correction for this tab? Suggest correction