Oops, an error
Loading. Please wait.

Tabloid Magazine tab

version 2
version 2

Whole song

Interactive

1,991 views 3 this week
3 commentsread comments
1 2 3 4 5
x 3
add to favorites
×
Save as Personal and add changes to this tab that will be seen only by you. Learn more ›
×
You can save this tab as Personal to edit and correct it or add notes. All changes will be seen only by you. Learn more »
launch autoscroll
font size
0
reset
how to read this tab
guitar tuner
edit
Autoscroll
slow
fast
+/-
esc
set tempo
stop
Author
Difficulty
Tabloid Magazine

The Living End

Tabbed By: Pete (whatsername_223@hotmail.com)


/= slide up
\= silde down
h= hammer on
p= pull off
b= half bend
^= full bend
^^= bend 2 frets 
v= bring bend down
pm..= palm mute
()= harmonics

Intro:

e--7---7---7-----7---7---7------|
b--7---7---7-----7---7---7------|
g--9^^-9^^-9^^---9^^-9^^-9^^----|
d-------------------------------|
a-------------------------------|
e-------------------------------|

Lead Guitar
e--7---7---7---7---7---7----------------------------------------------|
b--7---7---7---7---7---7----/10-7-------7b----------------------------|
g--9^^-9^^-9^^-9^^-9^^-9^^--------9p7---7b----------------7-9^^v-7-9--|
d-------------------------------------9----9---7--9---7h9-------------|
a--------------------------------------------9------------------------|
e---------------------------------------------------------------------|

e--7---7---7---7---7---7------------------|
b--7---7---7---7---7---7----/10-7---------|
g--9^^-9^^-9^^-9^^-9^^-9^^--------9p7-----|
d-------------------------------------9---|
a-----------------------------------------|
e-----------------------------------------|
 
e------------------------------------------------------|
b-7-------7---7-------7---7-------7-------7---7---7----|
g---4---4---4---4---4---4---4---4---4---4---4---4---4--|
d-----7-----------7-----------7-------7----------------|
a------------------------------------------------------|
e------------------------------------------------------|

Rythem Guitar
   B     F#       G        A              E              G
e----------------------------------------------------------------------|
b----------------------------------------------------------------------|
g--4--4--------------------2-2-2-2-------------------------------------|
d--4--4--4-4-4-4--5-5-5-5--2-2-2-2--(x3)--2-2-2-2--------5-5-5-5-------|
a--2--2--4-4-4-4--5-5-5-5--0-0-0-0--------2-2-2-2--------5-5-5-5-------|
e--------2-2-2-2--3-3-3-3-----------------0-0-0-0--(x4)--3-3-3-3--(x2)-|


Pre verse:

e----------------------------------|
b----------------------------------|
g--3/4--4------4----7-7--2-2-------|
d--3/4--4------4----7-7--2-2--2-2--|
a--1/2--2--2-2-2----5-5--0-0--2-2--|
e-----------------------------0-0--|
           pm.

Verse:

e-------------------------------------2-------2-------2-----2-2----|
b------2-------2-------2-----2-2------2-------2-------2-----2-2----|
g------2-------2-------2-----2-2------2-------2-------2-----2-2----|
d--2-2-2-2-2-2-2-2-2-2-2-2-2-2-2------4-------4-------4-----4-4----|
a--0-0-0-0-0-0-0-0-0-0-0-0-0-0-0--4-4-4-4-4-4-4-4-4-4-4-4-4-4-4----|
e---------------------------------2-2-2-2-2-2-2-2-2-2-2-2-2-2-2----|
   pm.   .....   .....   ...      ...   .....   .....   ...
"Temperamental editors
Searching for the passion
Overpaid and over-rated
Looking for a cash in"

e-----------------------------------|
b-----------------------------------|
g------7-------7-7------1-----1-1---|
d--7-7-7-7-7-7-7-7------2-----2-2---|
a--5-5-5-5-5-5-5-5--2-2-2-2-2-2-2---| Repeat all that twice
e-------------------0-0-0-0-0-0-0---|
   pm.   .....      ...   ...
"Yeah, it's too late"


Pre Chorus:

e----------------------------------------4-4--(4-4-4)---------|
b----------------------------------------5-5--(5-5-5)---------|
g--7-7--(7-7-7)--7-7--9-9-----------9-9--6-6--(6-6-6)--6-6----|
d--7-7--(7-7-7)--7-7--9-9--(9-9-9)--9-9--6-6--(6-6-6)--6-6----|
a--5-5--(5-5-5)--5-5--7-7--(7-7-7)--7-9--4-4--(4-4-4)--4-4----|
e--------------------------(7-7-7)----------------------------|
"And you read about it
You just can’t sleep without
The pages of the magazine"

e--2-2----------------------------------------------|
b--2-2--(2-2-2)-------------------------------------|
g--3-3--(3-3-3)-------4-4--(4-4)--4--------2-2-2----|
d--4-4--(4-4-4)--4-4--4-4--(4-4)--4--4--5--2-2-2----|
a--4-4--(4-4-4)--4-4--2-2--(2-2)--2--4--5--0-0-0----|
e--2-2-----------2-2-----------------2--3-----------|
"Don't believe in all you read"


Chorus:

   B     F#       G        A              E              G
e-----------------------------------------------------------------------|
b-----------------------------------------------------------------------|
g--4--4--------------------2-2-2-2--------------------------------------|
d--4--4--4-4-4-4--5-5-5-5--2-2-2-2--(x3)--2-2-2-2--------5-5-5-5--------|
a--2--2--4-4-4-4--5-5-5-5--0-0-0-0--------2-2-2-2--------5-5-5-5--------|
e--------2-2-2-2--3-3-3-3-----------------0-0-0-0--(x4)--3-3-3-3--(x2)--|
"You can’t trust the tabloid magazine
And I’m about to break down
It’s just a tabloid magazine
And I don’t wanna break down"

Pre Verse

Verse 2: Same as verse 1, but with Lead bit in backround

e--5-5-----5-------------------5-5-----5-------------|
b----------------------------------2-2------2--------|
g------2-2------2----6^v-----------------------------|
d-------------------------(x2)-----------------------| x2
a----------------------------------------------------|
e-----------------------------------------------0-0--|


Pre Chorus

Chorus

Bridge:

e-------------------------------------------------|
b-------------------------------------------------|
g-6--6-7--7-9--9-7--7-6--6-7-7--------2-2---------|
d-7--7-7--7-9--9-7--7-7--7-7-7--4--2--2-2--2------| Repeat as 
a-7--7-5--5-7--7-5--5-7--7-5-5--4--2--0-0--2---0--| needed
e-5--5----------------5--5------2--0-------0-2----|
"Don’t wanna be around ‘em
Better off without them
You know you can’t escape them"

e-------------------------------------------------|
b-------------------------------------------------|
g--7--7------7-7--9--9------9-9------6-------6----|
d--7--7--7-7-7-7--9--9--9-9-9-9--6-6-6-6-6-6-6----|
a--5--5--5-5-5-5--7--7--7-7-7-7--4-4-4-4-4-4-4----|
e-------------------------------------------------|
         pm.            ...      ...   .....
"And you read about them all the time
From the pages of the magazine"

e-------------------------------------------------|
b-------------------------------------------------|
g---------------------4-4-4----------2-2-2-2------|
d------4-------4--4-4-4-4-4--4--5----2-2-2-2------|
a--4-4-4-4-4-4-4--2-2-2-2-2--4--5----0-0-0-0------|
e--2-2-2-2-2-2-2-------------2--3-----------------|
   pm.   .....    ...    
"But you can't believe in all you read."


Intro

then
e---------------------|
b---------------------|
g--2-2-2-2-2-2-2-2----|
d--2-2-2-2-2-2-2-2----|
a--0-0-0-0-1-1-1-1----|
e---------------------|


Chorus

Outro:

e-------------7\----|
b-------------7\----|
g--6-7-6-7----7\----|
d--x-x-x-x----9\----|
a--4-5-4-5----9\----|
e-------------7\----|

            
            
Suggest correction
Creating personal tab
Creating personal tab
You can edit any tab online and save it as your Personal.

You can edit, replace or remove any tab part or add personal notes – all changes will be seen only by you.

Personal tabs can be accessed anytime from any device, even offline.
Learn more »
Give kudos to tab author, rate the tab!
1 2 3 4 5
comments
print report bad tab
3 comments total.
0 reply
buggerya 10 Apr 11, 2006 02:42 AM

you stole this tab you dickhead

0 reply
Jethro_Skuly 10 Dec 17, 2006 11:25 PM

No he didn't, its a lot different but quite amazingly the same song so they are likely to be like eachother

0 reply
jmorr212 10 Feb 18, 2007 12:13 AM

dude what shit are u on i dont think that even made sense^^^^ o_O

guest
You may want to rate the tab now too:
select rating
Wanna post a correction for this tab? Suggest correction