Oops, an error
Loading. Please wait.

Wake Up bass

version 2
version 2

Whole song

Interactive

959 views 1 this week
1 commentread comment
1 2 3 4 5
x 3
add to favorites
×
Save as Personal and add changes to this tab that will be seen only by you. Learn more ›
×
You can save this tab as Personal to edit and correct it or add notes. All changes will be seen only by you. Learn more »
launch autoscroll
font size
0
reset
guitar tuner
edit
Autoscroll
slow
fast
+/-
esc
set tempo
stop
Author
Difficulty
Legend: R = Rest. \ = Slide Down. / = Slide Up

Scott's bass comes in 16 seconds into the song. It simply goes like this.

Play This 3 Times
G-------------------------------------------------------------------------|
D-------------------------------------------------------------------------|
A-------------------------------------------------------------------------|
E-7-7-7-7\-0-0-0-0/-7-7-7-7\-5-5-5-5/-7-7-7-7\-3-3-3-3/-7-7-7-7-7-7-7-7---|

Little bit before Chorus: The 4th Fret is Played 16 Times.
G-------------------------------------------------------------------------|
D-4444444444444444--------------------------------------------------------|
A-------------------------------------------------------------------------|
E-------------------------------------------------------------------------|

Then The Chorus Goes Like This: Play This 2 Times.
G-------------------------------------------------------------------------|
D-------------------------------------------------------------------------|
A-22222222----------55555555----------------------------------------------|
E----------33333333----------22222222-------------------------------------|

Then the end of the chorus goes like:
G-------------------------------------------------------------------------|
D-------------------------------------------------------------------------|
A-3333333333333333--------------------------------------------------------|
E-------------------------------------------------------------------------|

Little Bit After Chorus, Before The Second Verse:
G-------------------------------------------------------------------------|
D-------------------------------------------------------------------------|
A-------------------------------------------------------------------------|
E-7-7-7-7-7-7-7-7-5/-7-7-7-7-7-7-7-7--------------------------------------|

Simply Play The Verse As The Same As Before:
G-------------------------------------------------------------------------|
D-------------------------------------------------------------------------|
A-------------------------------------------------------------------------|
E-7-7-7-7\-0-0-0-0/-7-7-7-7\-5-5-5-5/-7-7-7-7\-3-3-3-3/-7-7-7-7-7-7-7-7---|

Then Play The Pre-Chorus As Before:
G-------------------------------------------------------------------------|
D-4444444444444444--------------------------------------------------------|
A-------------------------------------------------------------------------|
E-------------------------------------------------------------------------|

Then The Chorus: Play Twice.
G-------------------------------------------------------------------------|
D-------------------------------------------------------------------------|
A-22222222----------55555555----------------------------------------------|
E----------33333333----------22222222-------------------------------------|

Then The End Of The Chorus:
G-------------------------------------------------------------------------|
D-------------------------------------------------------------------------|
A-3333333333333333--------------------------------------------------------|
E-------------------------------------------------------------------------|

The Interlude Goes Like:
G----------------------------------------------------------------------------|
D----------------------------------------------------------------------------|
A----------------------------------------------------------------------------|
E-7-7-7-7-7-7-7-7-5/-7-7-7-7-7-7-7-7-5/-7-7-7-7-7-7-7-7-5/-7-7-7-7-7-7-7-7-7-|

The Second Bit Of The Interlude "Waaake Up. Wake Up." Is Simply The Same As The Chorus: Play Twice.
G-------------------------------------------------------------------------|
D-------------------------------------------------------------------------|
A-22222222----------55555555----------------------------------------------|
E----------33333333----------22222222-------------------------------------|

Then The End Of The Interlude:
G-------------------------------------------------------------------------|
D-4444444444444444--------------------------------------------------------|
A-------------------------------------------------------------------------|
E-------------------------------------------------------------------------|

Then the Exitlude: Is just guitar and drums untill the Chorus lyrics start up again. 
goes like: Play 3 Times.
G-------------------------------------------------------------------------|
D-------------------------------------------------------------------------|
A-2R----------5R----------------------------------------------------------|
E-------3R----------2R----------------------------------------------------|

Then the song should end. Its a great song..and hopefully you can play it with ease.

If you have any enquires e-mail me on azza_rox_54@hotmail.com

Peace Out!
Suggest correction
Creating personal tab
Creating personal tab
You can edit any tab online and save it as your Personal.

You can edit, replace or remove any tab part or add personal notes – all changes will be seen only by you.

Personal tabs can be accessed anytime from any device, even offline.
Learn more »
Give kudos to tab author, rate the tab!
1 2 3 4 5
comments
print report bad tab
1 comment total.
0 reply
sseeker 51 Jan 10, 2007 03:07 AM

AWSOME Tab! It's really easy to understand and anyone can play it! I gave it a 5/5 xD

guest
You may want to rate the tab now too:
select rating
Wanna post a correction for this tab? Suggest correction