Oops, an error
Loading. Please wait.

Whos Gonna Save Us solo tab

version 3
version 3

Whole song

Interactive

348 views 1 this week
2 commentsread comments
1 2 3 4 5
2 more votes to show rating
add to favorites
×
Save as Personal and add changes to this tab that will be seen only by you. Learn more ›
×
You can save this tab as Personal to edit and correct it or add notes. All changes will be seen only by you. Learn more »
launch autoscroll
font size
0
reset
how to read this tab
guitar tuner
edit
Autoscroll
slow
fast
+/-
esc
set tempo
stop
Difficulty
intermediate
SOLO:

E------------(REALLY FAST)-------(REALLY FAST)----------------|
B----------8-9-8-9-8----------8-9-8-9-8-----------------------|
G-----3/8-----------10-----------------10---8-8-8-8-10-8-10-8-|
D-------------------------------------------------------------|
A-------------------------------------------------------------|
E-------------------------------------------------------------|

E------------------------------------------------|
B-------------8-10^------------------------------|
G---8--10--8-------------------------------------| Then back too....
D------------------------------------------------|
A------------------------------------------------|
E------------------------------------------------|


E------------(REALLY FAST)-------(REALLY FAST)---------------|
B----------8-9-8-9-8----------8-9-8-9-8----11^^-11-9-11-9----|
G-----3/8-----------10-----------------10--------------------|
D------------------------------------------------------------|
A------------------------------------------------------------|
E------------------------------------------------------------|

E------------------------------------------------------------|
B----3-1-0---------------------------------------------------|
G----------0-4-0-2-0-----------------------------------------|
D-------------------------(repeat as many times as needed)---|
A------------------------------------------------------------|
E------------------------------------------------------------|

Enjoy it!
By Mikey B.....

            
            
Suggest correction
Creating personal tab
Creating personal tab
You can edit any tab online and save it as your Personal.

You can edit, replace or remove any tab part or add personal notes – all changes will be seen only by you.

Personal tabs can be accessed anytime from any device, even offline.
Learn more »
Give kudos to tab author, rate the tab!
1 2 3 4 5
comments
print report bad tab
2 comments total.
0 reply
minichibi 101 Apr 21, 2007 03:28 PM

Um... Did you make this up? because it doesnt really match the song at all :S Sorry :P

0 reply
minichibi 101 Apr 21, 2007 03:30 PM

Actually... nevermind. I see what you're doing.

guest
Wanna post a correction for this tab? Suggest correction