Oops, an error
Loading. Please wait.

Five Nights At Freddys tab

4,651 views 45 this week
3 commentsread comments
1 2 3 4 5
x 9
add to favorites
×
Save as Personal and add changes to this tab that will be seen only by you. Learn more ›
×
You can save this tab as Personal to edit and correct it or add notes. All changes will be seen only by you. Learn more »
launch autoscroll
font size
0
reset
how to read this tab
guitar tuner
edit
Autoscroll
slow
fast
+/-
esc
set tempo
stop
Author
Unregistered
Five nights at Freddys-The living tombstone
Tabbed by: FnaF
E-mail: greycat1402@gmail.com
Tuning: standard

e|---3--2--0-----3--------0-----------------------------------------------------------|
B|------------3-----0--3-----3--1--0-----0-----------1--0-----0------------1--0-------|
G|------------------------------------2--------0--2--------2---------0--2-------------|
D|------------------------------------------2--------------------2--------------------|
A|------------------------------------------------------------------------------------|
E|------------------------------------------------------------------------------------|

e|---------------------3--2--0-----3--------0-----------------------------------------|
B|------------------------------3-----0--3-----3--1--0-----0-----------1--0-----0-----|
G|---2--0-----------------------------------------------2--------0--2--------2--------|
D|---------4--2--4--2-----------------------------------------2-----------------------|
A|------------------------------------------------------------------------------------|
E|------------------------------------------------------------------------------------|

e|------------------------------------------------------------------------------------|
B|------------1--0-----0--------------------------------------------------------------|
G|------0--2--------2--------0--2--1--0-----0--3--4-----------------------------------|
D|---2--------------------2--------------2--------------------------------------------|
A|------------------------------------------------------------------------------------|
E|------------------------------------------------------------------------------------| 

            
            
Suggest correction
Creating personal tab
Creating personal tab
You can edit any tab online and save it as your Personal.

You can edit, replace or remove any tab part or add personal notes – all changes will be seen only by you.

Personal tabs can be accessed anytime from any device, even offline.
Learn more »
comments
print report bad tab
3 comments total.
-1 reply
tlaliberte 10 Mar 13, 2016 09:34 AM

wrong notes
over complicated
too many notes
sounds nothing like the song

0 reply
josescholte2003 10 Mar 19, 2017 02:48 PM

Tlaliberte thats bullshit

0 reply
pikachustarter3 10 Aug 31, 2017 02:34 PM

Your wrong they sound like the begginning of the song

guest
Wanna post a correction for this tab? Suggest correction