Oops, an error
Loading. Please wait.

Choo Lo tab

1,165 views 147 this week
3 commentsread comments
1 2 3 4 5
x 6
add to favorites
×
Save as Personal and add changes to this tab that will be seen only by you. Learn more ›
×
You can save this tab as Personal to edit and correct it or add notes. All changes will be seen only by you. Learn more »
launch autoscroll
font size
0
reset
how to read this tab
guitar tuner
edit
Autoscroll
slow
fast
+/-
esc
set tempo
stop
Author
[Intro]

e|-----0-------0------0-----0--------0-----0-----------------------------------------|
B|--------0-------0------------0--------0--------------------------------------------|
G|8/9--------9----------9---------9--------------------------------------------------|
D|-----------------------------------------------------------------------------------|
A|-----------------------------------------------------------------------------------|
E|-----------------------------------------------------------------------------------|

e|-----0-------0------0-----0-------- 0-----0------------------------------------------|
B|--------0-------0------------0--------0----------------------------------------------|
G|9/11--------11----------11-------11--------------------------------------------------|
D|-------------------------------------------------------------------------------------|
A|-------------------------------------------------------------------------------------|
E|-------------------------------------------------------------------------------------|

e|------0---------0------0-----0-------- -0-----0--|
B|---------0---------0------------0----------0-----|
G|11/13--------13----------13--------13------------|
D|-------------------------------------------------|
A|-------------------------------------------------|
E|-------------------------------------------------|

e|------0---------0------0-------0-------- -0-----0--|
B|---------0---------0--------------0----------0-----|
G|13/14--------14----------14/16--------16-----------|
D|---------------------------------------------------|
A|---------------------------------------------------|
E|---------------------------------------------------|

[Lead part]

e|-11h12-11h12-11h12-11h12-11-12-12/14---------------------------|
B|--------------------------------------12-12/14\9-9-10/12-------|
G|-----------------------------------------------------------11--|
D|---------------------------------------------------------------|
A|---------------------------------------------------------------|
E|---------------------------------------------------------------|

e|-----------------------------------------------|
B|---12---12---12-----12---12---12-----12----12--|
G|-9----9----9------8----8----8------------------|
D|----------------------------------11----11-----|
A|-----------------------------------------------|
E|-----------------------------------------------|

[Chords]

         E           B        A          B
Khada hoon aaj bhi waheen, ki dil phir bekarar hai
            E           B        A          B
Khada hoon aaj bhi waheen, ki tera intezaar hai

For Chorous play power chords with High E and B string open.....

            C#5         B5               A5        B5
Choo Lo jo mujhe tum kabhi, kho na jaoon main raat din
              C#5       B5      A5           B5
Nazaron me tum ho basey....  eeeyyyy.......  eyyyyyyy
           C#5    B5           A5        B5
Keh do jo tum ek baar, Mere ho bas tum mere
              C#5       B5     A5           B5
Nazaron me tum ho basey....  eeeyyyy.......  eyyyyyyy


************************************


| /   Slide up
| \   Slide down
| h   hammer

************************************

            
            
Suggest correction
Creating personal tab
Creating personal tab
You can edit any tab online and save it as your Personal.

You can edit, replace or remove any tab part or add personal notes – all changes will be seen only by you.

Personal tabs can be accessed anytime from any device, even offline.
Learn more »
comments
print report bad tab
3 comments total.
+1 reply
rajat280312 10 Jul 15, 2017 03:27 AM

Thanks for the correct tabs

+1 reply
nitinjain280312 10 Jul 15, 2017 03:31 AM

Awesome songs. Thanks for the apt tabs

+1 reply
mehul.jain.240693 10 Jul 15, 2017 03:41 AM

thanks a lot!! cheers

guest
You may want to rate the tab now too:
select rating
Wanna post a correction for this tab? Suggest correction