Oops, an error
Loading. Please wait.

Condenados Bass

59 views 1 this week
no commentswrite comment
1 2 3 4 5
2 more votes to show rating
add to favorites
launch autoscroll
font size
0
reset
guitar tuner
×
Best way to learn
"Condenados"
Autoscroll
slow
fast
+/-
esc
set tempo
stop
 El orden de la cancion esta puesto al final. Espero que os guste.

VERSO
G|--------------------------------------------------------------
D|--------------------------------------------------------------
A|--------44444-66666-------------44444-------------(1212121212)
E|-33333--------------77777-33333-------55555-77777-------------

el re agudo se toca en el verso anterior al ultimo coro de la cancion.
(el si entonces no se toca)
En los demas versos no se toca ese re agudo, sino el si.

 CORO
G|------------------------------------------------
D|------------------------------------------------
A|-------44444-------------------44444------------
E|-33333-------77777-55555-33333-------55555-77777

INSTRUMENTOS DE METAL

G|-------------------------------------
D|------------------------------4------
A|-------44444------------------------7
E|-33333-------55555-777777-?-5---5-7--


?= la primera vez que se toca esta parte es lo que pone antes
del interrogante,
   la segunda vez se toca lo que hay despues del interrogante,
 no se toca el si.

OTRO

G|--------------------
D|--------------------
A|----------3-5-------
E|-3-5--3-5-----6-8--0


Orden de la cancion:

Intro (el bajo no toca)
instrumentos de metal
verso
instrumentos de metal
verso
coro
instrumentos de metal
verso
coro
otro


Saludos a todos desde Bruselas! Salud y Libertad!
Suggest correction
Give kudos to tab author, rate the tab!
1 2 3 4 5
comments
print report bad tab
guest
You may want to rate the tab now too:
select rating
Wanna post a correction for this tab? Suggest correction