Oops, an error
Loading. Please wait.

Didnt Get A Chance To Say Goodbye Tab

61 views 1 this week
no commentswrite comment
1 2 3 4 5
please rate
add to favorites
launch autoscroll
font size
0
reset
how to read this tab
guitar tuner
Autoscroll
slow
fast
+/-
esc
set tempo
stop
Help us to improve Ultimate-Guitar.com Take our survey!
×
Author
Difficulty
Tabbers playing skills
intermediate
advanced
 This song is about, when losing a loved one, and you did'nt get the chance to say
you would feel
                    Built up with sorrow and guilt. 
(Not so much Guilt, Depending on the situation)
  SECTION 1
  E\-------------------------------------------------------------------------------|
  B/-------------------------------------------------------------------------------|
  G\------8---8---8---8----6---6---6---6----4---4---4---4---4---4---4---4----------|
  D/----6---6---6---6----4---4---4---4----2---2---2---2---2---2---2---2------------|
  A\-------------------------------------------------------------------------------|
  E/-------------------------------------------------------------------------------| X 2


  SECTION 2
  E\--------------------------------------------------------|
  B/--------------------------------------------------------|
  G\-8-8-8-8-8-8--6-6-6-6-6-6--4-4-4-4-4-4-4-4-4-4-4-4------|
  D/-6-6-6-6-6-6--4-4-4-4-4-4--2-2-2-2-2-2-2-2-2-2-2-2------|
  A\--------------------------------------------------------|
  E/--------------------------------------------------------| X 2


  SECTION 3
  E\------------------------------------------------------------|
  B/----------9------------7------------5---5---5---5-----------|
  G\--8-8-8-8-8-8--6-6-6-6-6-6--4-4-4-4-4-4-4-4-4-4-4-4---------|
  D/--6-6-6-6-6-6--4-4-4-4-4-4--2-2-2-2-2-2-2-2-2-2-2-2---------|
  A\------------------------------------------------------------|
  E/------------------------------------------------------------| X 2


  SECTION 4
  E\------------------------------------------------------------|
  B/------------------------------------------------------------|
  G\-8-8-8-8--11-11-11-11--6-6-6-6--4-4-4-4---------------------|
  D/-6-6-6-6--9--9--9--9---4-4-4-4--2-2-2-2---------------------|
  A\------------------------------------------------------------|
  E/------------------------------------------------------------|

          *After Section five is done, repeat section 4 then 5.
  SECTION 5
  E\------------------------------------------------------------|
  B/------------------------------------------------------------|
  G\--8-8-8-8--6-6-6-6--3-3-3-3--4-4-4-4------------------------|
  D/--6-6-6-6--4-4-4-4--1-1-1-1--2-2-2-2------------------------|
  A\------------------------------------------------------------|
  E/------------------------------------------------------------|


  SECTION 6: This Section is played slower then the others
  E\-----------------------------------------------------------------|
  B/-----------------------------------------------------------------|
  G\--8-8-8-8-8--11-11-11-11-11--3-3-3-3-3--4-4-4-4-4----------------|
  D/--6-6-6-6-6--9--9--9--9--9---1-1-1-1-1--2-2-2-2-2----------------|
  A\-----------------------------------------------------------------|
  E/------------------------------------------------------------ X 4-|

  SECTION 7: This is ending, Needs to be much slower, fading.
  E\----------------------------------------------------------------------|
  B/----------------------------------------------------------------------|
  G\---8-8-8-8--11-11-11-11--3-3-3-3--4-4-4-4-----------------------------|
  D/---6-6-6-6--9--9--9--9---1-1-1-1--2-2-2-2-----------------------------|
  A\----------------------------------------------------------------------|
  E/----------------------------------------------------------------------|

                               END.
Suggest correction
Give kudos to tab author, rate the tab!
1 2 3 4 5
comments
print report bad tab
guest
You may want to rate the tab now too:
select rating
Please do not post tabs as comments. Select "correction" instead!