Oops, an error
Loading. Please wait.
We have Chord Pro version of Finest Girl Bin Laden Song.
It's the closest thing you can get to the original song and it has interactive parts. Check out the tab »
×
8,044 views 78 this week
2 commentsread comments
1 2 3 4 5
x 18
add to favorites
×
Save as Personal and add changes to this tab that will be seen only by you. Learn more ›
×
You can save this tab as Personal to edit and correct it or add notes. All changes will be seen only by you. Learn more »
launch autoscroll
font size
0
reset
how to read this tab
guitar tuner
edit
Autoscroll
slow
fast
+/-
esc
set tempo
stop
Author
         F          Am             Dm         A
E|--------1-----------5--8-------------------------------------------------------------
B|--------1-----------5--------------6--------2--3--3/5--------------------------------
G|-----2-----------5-----------------7-------------------2-----------------------------
D|--0-----------3-----------------0----------------------------------------------------
A|------------------------------------------0------------------------------------------
E|-----------------------------6-------------------------------------------------------


************************************

| /  Slide up

************************************

            
            
Suggest correction
Creating personal tab
Creating personal tab
You can edit any tab online and save it as your Personal.

You can edit, replace or remove any tab part or add personal notes – all changes will be seen only by you.

Personal tabs can be accessed anytime from any device, even offline.
Learn more »
comments
print report bad tab
2 comments total.
+1 reply
Spambot_2 140 May 28, 2016 10:54 AM

Second pattern sounds like it has another note in it to me

e|--------5--8-----|
B|--------5--------|
G|-----5-----------|
D|--3--------------|
A|-----------------|
E|-----------------|

0 reply
kylepob 63 May 28, 2016 07:37 PM

I think you are absolutely right. I've added that in.

guest
You may want to rate the tab now too:
select rating
Wanna post a correction for this tab? Suggest correction