Oops, an error
Loading. Please wait.

Jizz In My Pants Tab

32,327 views 12 this week
5 commentsread comments
1 2 3 4 5
accurate
x 10
add to favorites
launch autoscroll
font size
0
reset
how to read this tab
guitar tuner
Autoscroll
slow
fast
+/-
esc
set tempo
stop
Help us to improve Ultimate-Guitar.com Take our survey!
×
Author
Once again, I have seen a tab similar to this that doesn't sound right when you
play along with the original song. So I've made it my sworn goal to provide you
guys with the right tab. Enjoy!

Tuning: Standard (EADGBe)

Legend:
/   slide up
\   slide down
sus sustain a note
h   hammer on
p   pull off

Bass (verse)
---------------------------------|
---------------------------------|
---------------------------------|
---------------------------------|
---------------------------------|
-2--2sus---2--2sus---2--2sus---2-|

Bass (Chorus)
---------------------------------|
---------------------------------|
---------------------------------|
---------------------------------|
-5sus---4sus---------------------|
---------------2sus--------------|

---------------------------------|
---------------------------------|
---------------------------------|
---------------4sus--------------|
-5sus---4sus---------------------|
---------------------------------|

Guitar (verse)
---------------------------------|
---------------------------------|
---------------------------------|
-4--4sus---4--4sus---4--4sus---4-|
-4--4sus---4--4sus---4--4sus---4-|
-2--2sus---2--2sus---2--2sus---2-|

I've souped up the guitar part for
the chorus, so it sounds better.

guitar (Chorus)
----------------------------------|
----------------------------------|
-7----7---6----6------------------|
-7--7-----6--6-----4sus-----------|
-5sus-----4sus-----4sus-----------|
-------------------2sus-----------|

----------------------------------|
-------------------7sus-----------|
-7----7---6----6---6sus-----------|
-7--7-----6--6-----4sus-----------|
-5sus-----4sus--------------------|
----------------------------------|
Suggest correction
comments
print report bad tab
5 comments total. Showing first comments.
-1 reply
BOC15 10 wrote on May 14 2009, 07:11 pm

not correct

-1 reply
xflost 260 wrote on June 28 2009, 03:50 pm

****ing awesome!

0 reply
HitaroX 10 wrote on December 2 2009, 01:50 pm

Dude this is just lame and pathetic

guest
You may want to rate the tab now too:
select rating
Please do not post tabs as comments. Select "correction" instead!