Oops, an error
Loading. Please wait.

Were Back bass

435 views 3 this week
no commentswrite comment
1 2 3 4 5
3 more votes to show rating
add to favorites
×
Save as Personal and add changes to this tab that will be seen only by you. Learn more ›
×
You can save this tab as Personal to edit and correct it or add notes. All changes will be seen only by you. Learn more »
launch autoscroll
font size
0
reset
guitar tuner
edit
Autoscroll
slow
fast
+/-
esc
set tempo
stop
Author
Difficulty
-----------------------------------------------------------------------------
			  WE'RE BACK - The Lonely Island
-----------------------------------------------------------------------------

Tabbed By : Kadir
e-mail: kadirfromkotor@gmail.com

Tuning: Standard

=============================================================================
                              QUICK TUTORIAL
=============================================================================




This is a long break:
G|-----------------------------------------------------------------|
D|-------------------------------------------------------------4---|
A|---------------------------------------------0-------0-----4-----|
E|-0-----------2-------------------3---------------------3-2-------|

   1 e + a 2 e + a 3 e + a 4 e + a 1 e + a 2 e + a 3 e + a 4 e + a

This is a short break:
G|-----------------------------------------|
D|-----------------------------4-----------|
A|-------------0-------0-----4-------------|
E|-3---------------------3-2---------------|

   1 e + a 2 e + a 3 e + a 4 e + a

This is the main line:

G|-----------------2---4---------------------------2---4-----------|
D|---------------4---4-----4---2-4---------------4---4-----4---2-4-|
A|-2-----2-------------------------2-----2-------------------------|
E|-----------------------------------------------------------------|

   1 e + a 2 e + a 3 e + a 4 e + a 1 e + a 2 e + a 3 e + a 4 e + a

The song goes:

Long break
Main line
Short break
Main line
Long break
Main line
Short break
Main line
Short break
Main line
Short break
Main line
Short break
Main line
Short break
Main line
Short break
Main line
Long break
Main line
Long break
Half of main line

Enjoy!

=============================================================================
                             FULL TRANSCRIPT
=============================================================================


Ay yo new Lonely Island...                           ...Get 'em keeve!
G|----------------------------------------------------------------(-)------|
D|-------------------------------------------------------------4--(-)------|
A|---------------------------------------------0-------0-----4----(2)------|
E|-0-----------2-------------------3---------------------3-2------(-)------|

   1 e + a 2 e + a 3 e + a 4 e + a 1 e + a 2 e + a 3 e + a 4 e + a(1) 

My dick don't work...                                ...for real dude?
G|-----------------2---4---------------------------2---4----------(-)------|
D|---------------4---4-----4---2-4---------------4---4-----4---2-4(-)------|
A|-2-----2-------------------------2-----2------------------------(-)------|
E|----------------------------------------------------------------(3)------|

   1 e + a 2 e + a 3 e + a 4 e + a 1 e + a 2 e + a 3 e + a 4 e + a(1)

Hold up hold up...                                  ...wrong with my dick
G|-------------------------------------------------2---4----------(-)------|
D|-----------------------------4-----------------4---4-----4---2-4(-)------|
A|-------------0-------0-----4-----2-----2------------------------(2)------|
E|-3---------------------3-2--------------------------------------(-)------|

   1 e + a 2 e + a 3 e + a 4 e + a 1 e + a 2 e + a 3 e + a 4 e + a(1) 

a melted stick of butter...                         ...counting on us!
G|-----------------2---4------------------------------------------(-)------|
D|---------------4---4-----4---2-4--------------------------------(-)------|
A|-2-----2--------------------------------------------------------(-)------|
E|---------------------------------0-----------2------------------(3)------|

   1 e + a 2 e + a 3 e + a 4 e + a 1 e + a 2 e + a 3 e + a 4 e + a(1) 

motherfuckers myself...                              ...in the sink
G|-------------------------------------------------2---4----------(-)------|
D|-----------------------------4-----------------4---4-----4---2-4(-)------|
A|-------------0-------0-----4-----2-----2------------------------(2)------|
E|-3---------------------3-2--------------------------------------(-)------|

   1 e + a 2 e + a 3 e + a 4 e + a 1 e + a 2 e + a 3 e + a 4 e + a(1) 

small and ugly...                                    ...let 'em know
G|-----------------2---4------------------------------------------(-)------|
D|---------------4---4-----4---2-4-----------------------------4--(-)------|
A|-2-----2---------------------------------------------0-----4----(2)------|
E|---------------------------------3-----------0---------3-2------(-)------|

   1 e + a 2 e + a 3 e + a 4 e + a 1 e + a 2 e + a 3 e + a 4 e + a(1) 

For real though...                                   ...just like shit
G|-----------------2---4---------------------------2---4----------(-)------|
D|---------------4---4-----4---2-4---------------4---4-----4---2-4(-)------|
A|-2-----2-------------------------2-----2------------------------(-)------|
E|----------------------------------------------------------------(3)------|

   1 e + a 2 e + a 3 e + a 4 e + a 1 e + a 2 e + a 3 e + a 4 e + a(1)

what I'm talkin' about...                             ...cut off a steak
G|-------------------------------------------------2---4----------(-)------|
D|-----------------------------4-----------------4---4-----4---2-4(-)------|
A|-------------0-------0-----4-----2-----2------------------------(2)------|
E|-3---------------------3-2--------------------------------------(-)------|

   1 e + a 2 e + a 3 e + a 4 e + a 1 e + a 2 e + a 3 e + a 4 e + a(1) 

smashed in...                                        ...hit 'em again
G|-----------------2---4------------------------------------------(-)------|
D|---------------4---4-----4---2-4-----------------------------4--(-)------|
A|-2-----2---------------------------------------------0-----4----(2)------|
E|---------------------------------3-----------0---------3-2------(-)------|

   1 e + a 2 e + a 3 e + a 4 e + a 1 e + a 2 e + a 3 e + a 4 e + a(1) 

Straight out the box...                              ...found my dick
G|-----------------2---4---------------------------2---4----------(-)------|
D|---------------4---4-----4---2-4---------------4---4-----4---2-4(-)------|
A|-2-----2-------------------------2-----2------------------------(-)------|
E|----------------------------------------------------------------(3)------|

too much money...                                    ...prank on my butt
G|-------------------------------------------------2---4----------(-)------|
D|-----------------------------4-----------------4---4-----4---2-4(-)------|
A|-------------0-------0-----4-----2-----2------------------------(2)------|
E|-3---------------------3-2--------------------------------------(-)------|

   1 e + a 2 e + a 3 e + a 4 e + a 1 e + a 2 e + a 3 e + a 4 e + a(1) 

crept when I slept...                               ...incontinence?
G|-----------------2---4------------------------------------------(-)------|
D|---------------4---4-----4---2-4-----------------------------4--(-)------|
A|-2-----2---------------------------------------------0-----4----(2)------|
E|---------------------------------3-----------0---------3-2------(-)------|

   1 e + a 2 e + a 3 e + a 4 e + a 1 e + a 2 e + a 3 e + a 4 e + a(1) 

I got hepatitis C...                                ...blood transfusion
G|-----------------2---4---------------------------2---4----------(-)------|
D|---------------4---4-----4---2-4---------------4---4-----4---2-4(-)------|
A|-2-----2-------------------------2-----2------------------------(-)------|
E|----------------------------------------------------------------(3)------|

   1 e + a 2 e + a 3 e + a 4 e + a 1 e + a 2 e + a 3 e + a 4 e + a(1) 

motherfucker got...                                 ...cartoons fuck
G|-------------------------------------------------2---4----------(-)------|
D|-----------------------------4-----------------4---4-----4---2-4(-)------|
A|-------------0-------0-----4-----2-----2------------------------(2)------|
E|-3---------------------3-2--------------------------------------(-)------|

   1 e + a 2 e + a 3 e + a 4 e + a 1 e + a 2 e + a 3 e + a 4 e + a(1) 

CGI Garfield...                                    ...like to see that
G|-----------------2---4------------------------------------------(-)------|
D|---------------4---4-----4---2-4--------------------------------(-)------|
A|-2-----2--------------------------------------------------------(-)------|
E|---------------------------------0-----------2------------------(3)------|

   1 e + a 2 e + a 3 e + a 4 e + a 1 e + a 2 e + a 3 e + a 4 e + a(1) 

sex music...                                       ...at the dumps
G|-------------------------------------------------2---4----------(-)------|
D|-----------------------------4-----------------4---4-----4---2-4(-)------|
A|-------------0-------0-----4-----2-----2------------------------(2)------|
E|-3---------------------3-2--------------------------------------(-)------|

   1 e + a 2 e + a 3 e + a 4 e + a 1 e + a 2 e + a 3 e + a 4 e + a(1) 

swing by...                                        ...call it right there
G|-----------------2---4------------------------------------------(-)------|
D|---------------4---4-----4---2-4--------------------------------(-)------|
A|-2-----2--------------------------------------------------------(-)------|
E|---------------------------------0-----------2------------------(3)------|

   1 e + a 2 e + a 3 e + a 4 e + a 1 e + a 2 e + a 3 e + a 4 e + a(1) 

Game over motherfuckers...                         ...the world needs us!
G|-------------------------------------------------2---4----------(-)------|
D|-----------------------------4-----------------4---4-----4---2-4(-)------|
A|-------------0-------0-----4-----2-----2------------------------(-)------|
E|-3---------------------3-2--------------------------------------(-)------|

   1 e + a 2 e + a 3 e + a 4 e + a 1 e + a 2 e + a 3 e + a 4 e + a(1) 





|( ) First note of next bar

Enjoy!
=============================================================================
Suggest correction
Creating personal tab
Creating personal tab
You can edit any tab online and save it as your Personal.

You can edit, replace or remove any tab part or add personal notes – all changes will be seen only by you.

Personal tabs can be accessed anytime from any device, even offline.
Learn more »
Give kudos to tab author, rate the tab!
1 2 3 4 5
comments
print report bad tab
guest
You may want to rate the tab now too:
select rating
Wanna post a correction for this tab? Suggest correction