Oops, an error
Loading. Please wait.

Giddy Stratospheres bass

version 1
version 1

Whole song

Interactive

552 views 3 this week
3 commentsread comments
1 2 3 4 5
x 3
add to favorites
×
Save as Personal and add changes to this tab that will be seen only by you. Learn more ›
×
You can save this tab as Personal to edit and correct it or add notes. All changes will be seen only by you. Learn more »
launch autoscroll
font size
0
reset
guitar tuner
edit
Autoscroll
slow
fast
+/-
esc
set tempo
stop
Author
Difficulty
Title - Giddy Stratospheres
Artist - Long Blondes
Album - Someone To Drive You Home

Standard Tuning

Intro - part 1

G---------------|
D---------------|
A---------------|
E---2/4-4-4-----|  x4

Intro - part 2

G--------------|
D--------------|
A--------------|
E--2/4-4-4--0--|   x4

Verse

G--------------------------------------------6-6-8-8-----------------|
D----------------------------------------9-9-------------------------|
A--------------------------------------------------------------------|
E--2-4-4-0-2-4-4-0-2-4-4-0-2-4-4-0-2-4-4-------------4-4-0-2-4-4-0---|  x2

Pre/Post Chorus

G---------------------------------------------------------------------|
D---------------------------------------------------------------------|
A-11-11-11-11-6-6-6-6-11-11-11-11-6-6-6-6-11-11-11-11-6-6-6-6-4-4-4-4-|
E---------------------------------------------------------------------|

G-------------|
D-------------|
A-6-6-6-6-----|
E-------------|    x1

Intro part 1 x4
Verse x2
Pre/Post Chorus x1

Chorus

G----------------------------------------------------------|
D----------------------------------------------------------|
A-11-11-111111-8-8-888-/15-15-1515\12/15-15-15-1515-1514---|
E----------------------------------------------------------|  x2

Pre/Post Chorus x1
Intro part 1 x4
Verse x2
Pre/Post Chorus x1
Chorus x2
Pre/Post Chorus

Breakdown

G---------------------------------------------------|
D---------------------------------------------------|
A---------------------------------------------------|
E-4--2/4---7-6-4---2/4---7-6-4---2/4---7-6-4-4-4----|   x1

Intro part 1 x4
However, on 4th repeat play:

G----------------|
D----------------|
A----------------|
E-2/4-4-4--15-14-|

Chorus x6
Pre/Post Chorus x1
Intro part 1 x4

End

Lyrics:

You're pretty, oh so pretty
Why waste your time just sitting
here and listening to that dead-eyed bitch?
Do nothing: eat your chocolate
Drink your wine, she won't let you
Make your way across her empire line

What's eating you is a mystery
But go home with her one more time
And you know you'll be history

Watch movies with the lights on
Sit still and leave her tights on
Didn't you see this one sometime last week?
Go on, say something clever
Just accept that she will never
Take you higher than her attic room

What's eating you is a mystery
But go home with her one more time
And you know you'll be history

She'll never take you to giddy stratospheres, i'll confirm your fears
She'll never take you to giddy stratospheres, i'll confirm your fears
(Is she a femme fatale?) That's what she wants you to think
(She'll never lead him astray) But it's the best she can do
(But is she going away?) No, she'll always be here waiting for you
Back here on earth

Your mother, call your mother
Even she's surprised that this is
How you want to spend your nights indoors
You never call to often
What's up? Have you forgotten
What it's like to have her on all fours

What's eating you is a mystery
But go home with her one more time
And you know you'll be history

She'll never take you to giddy stratospheres, i'll confirm your fears
She'll never take you to giddy stratospheres, i'll confirm your fears
(Is she a femme fatale?) That's what she wants you to think
(She'll never lead him astray) But it's the best she can do
(But is she going away?) No, she'll always be here waiting for you
Back here on earth

There's a train at the station
It's leaving this morning
It'll take you away from
This girl that's so boring
Don't turn around, just walk away
Don't turn around, just walk away
Don't turn around, just walk away

She'll never take you to giddy stratospheres, i'll confirm your fears
She'll never take you to giddy stratospheres, i'll confirm your fears
(Is she a femme fatale?) That's what she wants you to think
(She'll never lead him astray) But it's the best she can do
(But is she going away?) No, she'll always be here waiting for you
Back here on earth

            
            
Suggest correction
Creating personal tab
Creating personal tab
You can edit any tab online and save it as your Personal.

You can edit, replace or remove any tab part or add personal notes – all changes will be seen only by you.

Personal tabs can be accessed anytime from any device, even offline.
Learn more »
Give kudos to tab author, rate the tab!
1 2 3 4 5
comments
print report bad tab
3 comments total.
0 reply
cthomson 52 Nov 28, 2006 01:40 AM

Sorry, should be this:

However, on 4th repeat play:

G----------------|
D----------------|
A-----------15-14|
E-2/4-4-4--------|

A string, not E

0 reply
moDtheGod 94 Dec 06, 2006 06:43 PM

You sure this is right?

0 reply
cthomson 52 Dec 07, 2006 01:26 AM

Nope.

guest
You may want to rate the tab now too:
select rating
Wanna post a correction for this tab? Suggest correction