Oops, an error
Loading. Please wait.

Once And Never Again bass

version 1
version 1

Whole song

Interactive

385 views 1 this week
2 commentsread comments
1 2 3 4 5
1 last vote to show rating
add to favorites
×
Save as Personal and add changes to this tab that will be seen only by you. Learn more ›
×
You can save this tab as Personal to edit and correct it or add notes. All changes will be seen only by you. Learn more »
launch autoscroll
font size
0
reset
guitar tuner
edit
Autoscroll
slow
fast
+/-
esc
set tempo
stop
Author
Difficulty
Title - Once and Never Again
Artist - The Long Blondes
Album - Someone To Drive You Home

Standard Tuning

Intro

G-------------------------------------------------------------|
D-------------------------------------------------------------|
A---------/14---------3-3-3-5-5-5-----------------------------|
E-3-0-0-0-----14-14-14-----------3-3-3-3-3-3-3-3-3-3-3-3-3-3--|

Verse

G-----------------------------|
D-----------------------------|
A-------2-2-2-3-3-3-5-5-5-----|
E-3-3-3-----------------------|    x8

Chorus

G---------------------------------------------|
D---------------------------------------------|
A---------/14---------3-3-3-5-5-5-3-3-3-5-5-5-|
E-3-0-0-0-----14-14-14------------------------|

G----------------------------------------------------------------|
D----------------------------------------------------------------|
A---------/14----------3-3-3-5-5-5-------------------------------|
E-3-0-0-0-----14-14-14-------------3-3-3-3-3-3-3-3-3-3-3-3-3-3-3-|

Verse x8
Chorus

Bridge

G-----------------------------------------|
D-----------------------------------------|
A-----------------------------5-3-5-5-5-5-|
E-1/3-----1/3-----1/3-----1/3-------------|

Verse x6

Outro

G---------------------------------------------------------------------|
D---------------------------------------------------------------------|
A-------------14-14-14----------3-3-3-5-5-5-3-3-3-5-5-5-3-3-3-5-5-5---|
E-3-3-3-0-0-0----------14-14-14-------------------------------------3-|

End.

Lyrics:

Nineteen, you're only nineteen for god's sake, you don't need a boyfriend
Nineteen, you're only nineteen for god's sake, you don't need a boyfriend
Look what he's made you do to your arm again
He said he'd come round but he's gone out with his friend
And i know how it feels to be your age and feel the world is caving in

Another drama by the kitchen sink tonight
You said you'd cut yourself whilst washing up the knives
Another week off school won't do you any good
And i know how it feels to be your age

Nineteen, you're only nineteen for god's sake, you don't need a boyfriend
Nineteen, you're only nineteen for god's sake, you don't need a boyfriend
Come out with me and find out what you really want
Come out to me, you only have to do it onc
And i know how it feels to be your age, you only have to do it
once and never again

Another drama by the kitchen sink tonight
You said you'd cut yourself whilst washing up the knives
Another week off school won't do you any good
And i know how it feels to be your age

You know i'm not so young
I spend an hour getting ready every day
And still i end up looking more or less the same
But i could show you a thing or two...

I could show you the ropes, yes i could show you the ropes
And i will change my sheets for you, cos i know how it feels
I know how it feels to be your age
I know how it feels to be your age
Oh, how i'd love to feel a girl your age
Once and never again

            
            
Suggest correction
Creating personal tab
Creating personal tab
You can edit any tab online and save it as your Personal.

You can edit, replace or remove any tab part or add personal notes – all changes will be seen only by you.

Personal tabs can be accessed anytime from any device, even offline.
Learn more »
Give kudos to tab author, rate the tab!
1 2 3 4 5
comments
print report bad tab
2 comments total.
0 reply
moDtheGod 94 Dec 06, 2006 06:46 PM

Needs a lot of work. It's actually much easier to tab off the original version of the song. The bass on the album version is lost in the general sound. I tabbed it a while ago but I'm only a novice and I didn't think it was good enough. But it's closer to it than this one!

0 reply
edwardgrogers 20 Jun 24, 2007 07:48 AM

Well I think it's spot on

guest
You may want to rate the tab now too:
select rating
Wanna post a correction for this tab? Suggest correction