Oops, an error
Loading. Please wait.

Cry Of The Madman bass

51 views 3 this week
no commentswrite comment
1 2 3 4 5
2 more votes to show rating
add to favorites
×
Save as Personal and add changes to this tab that will be seen only by you. Learn more ›
×
You can save this tab as Personal to edit and correct it or add notes. All changes will be seen only by you. Learn more »
launch autoscroll
font size
0
reset
guitar tuner
edit
Autoscroll
slow
fast
+/-
esc
set tempo
stop
Author
Difficulty
This is in Standard tuning, and keeping the rhythm~ real easy tab woah
play this it is really fun i love this local band the guys are awesome!
100% correct i know the bass player it might not sound this way exactly though but good 
and enjoi !!!!!!!!


INTRO ~softly~
|--------------------------------------|
|--------------------------------------|
|-1-1x--11-6-6x--6-8~~--9-7-5-4-2-1-0--|
|--------------------------------------| x2

VERSE 1 (0:12)
He sits and stares at the window
   wonders whats on his mind....
|--------------------------------------|
|--------------------------------------|
|-1-1x--11-6-6x--6-8~~--9-7-5-4-2-1-0--|
|--------------------------------------| x3

PRE-CHORUS (0:29)
Moooooon throws his back against the wall....
|---------------------------------------|
|---------------------------------------|
|-3-33-33-3-3-33-3-3-6-66-66-6-6-66-6-6-|
|---------------------------------------|

CHORUS (0:35) ~hard strucken~
You hear the cry of the madman wo00ooh w0o0oh....
|--------------------------------------|
|--------------------------------------|
|-1-1x--11-6-6x--6-8~~--9-7-5-4-2-1-0--|
|--------------------------------------| x3

VERSE 2 (0:46) ~softly~
From his padded cell, you can hear the
          Screams of hell....
|--------------------------------------|
|--------------------------------------|
|-1-1x--11-6-6x--6-8~~--9-7-5-4-2-1-0--|
|--------------------------------------| x3

PRE-CHORUS (1:03)
Hiimmmmm Throws his face against the wall....
|---------------------------------------|
|---------------------------------------|
|-3-33-33-3-3-33-3-3-6-66-66-6-6-66-6-6-|
|---------------------------------------|


CHORUS (1:08) ~hard strucken~
You hear the cry of the madman wo00ooh w0o0oh....
|--------------------------------------|
|--------------------------------------|
|-1-1x--11-6-6x--6-8~~--9-7-5-4-2-1-0--|
|--------------------------------------| x4


VERSE 3 (1:31) ~softly~
will we ever know this man?....
|--------------------------------------|
|--------------------------------------|
|-1-1x--11-6-6x--6-8~~--9-7-5-4-2-1-0--|
|--------------------------------------| x3

PRE-CHORUS (1:48)
YOUUUUUu Throws his back against the wall....
|---------------------------------------|
|---------------------------------------|
|-3-33-33-3-3-33-3-3-6-66-66-6-6-66-6-6-|
|---------------------------------------|


CHORUS (1:54) ~hard strucken~
You hear the cry of the madman wo00ooh w0o0oh....
|--------------------------------------|
|--------------------------------------|
|-1-1x--11-6-6x--6-8~~--9-7-5-4-2-1-0--|
|--------------------------------------| x2

Bridge (2:10) ~gentle fomato~
hes mad, the man is mad....                THROWS HIS back..
|------------------|                       |--------------------|
|------------------|                       |--------------------|
|-8~--6--6-6-6-8~--|                       |-6b------8b-6-66-6--|
|------------------| x8.....then play this |--------------------|

ENDING (CHORUS)(2:36) ~SLAPish played~
000000 you hear the cry of the madman....
|--------------------------------------|
|--------------------------------------|
|-1-1x--11-6-6x--6-8~~--9-7-5-4-2-1-0--|
|--------------------------------------| x3

|----------------|
|----------------|
|-1~~~~~~~~~~~~~-|
|----------------|
END
Suggest correction
Creating personal tab
Creating personal tab
You can edit any tab online and save it as your Personal.

You can edit, replace or remove any tab part or add personal notes – all changes will be seen only by you.

Personal tabs can be accessed anytime from any device, even offline.
Learn more »
Give kudos to tab author, rate the tab!
1 2 3 4 5
comments
print report bad tab
guest
You may want to rate the tab now too:
select rating
Wanna post a correction for this tab? Suggest correction