Oops, an error
Loading. Please wait.

Holy War Bass Tab

1,108 views 1 this week
no commentswrite comment
1 2 3 4 5
2 more votes to show rating
add to favorites
launch autoscroll
font size
0
reset
guitar tuner
Autoscroll
slow
fast
+/-
esc
set tempo
stop
Help us to improve Ultimate-Guitar.com Take our survey!
×
Author
-------------------------------------------------------------------------------
			    HOLY WAR - Lords Of The New Church
-------------------------------------------------------------------------------


It's an easy but very funny song. you can find the timing by yourself...
PLEASE RATE & COMMENT!

Tabbed By : NoFlowers
e-mail: FunHouse92@gmail.com

Tuning: Standard

Intro
G|-------------------------------------------------------------------------|
D|-------------------------------------------------------------------------|
A|-7777777777777777-55555555-44444444--------------------------------------|
E|-------------------------------------------------------------------------|

Pre-Verse
G|-------------------------------------------------------------------------|
D|-------------------------------------------------------------------------|
A|----------------------------------55-555555-555555-555555-555555---------|
E|-55555555555555555555555555555555----------------------------------------|

Verse
G|-------------------------------------------------------------------------|
D|-------------5---5--5----------------------------------------------------|
A|--------5------7--7----7--5-7-9-5----------------------------------------|
E|-7--5-7---7----------------------7--77-5---------------------------------|

End Of The Verse
G|-------------------------------------------------------------------------|
D|-------------5---5--5----------------------------------------------------|
A|--------5------7--7----7-777777-777777-----------------------------------|
E|-7--5-7---7--------------------------------------------------------------|


Bridge (There are some variations between the 2 bridges, but you can easily find them) 
G|-------------------------------------------------------------------------|
D|-------------------------------------------------------------------------|
A|------------------------------------5555555555555555555555555555---------|
E|-77777777777777777777777777777777777-------------------------------------|

G|-------------------------------------------------------------------------|
D|-------------------------------------------------------------------------|
A|-77777777777777999999999999999999999-------------------------------------|
E|-------------------------------------------------------------------------|

                                                                  NoFlowers

| /  slide up
| \  slide down
| h  hammer-on
| p  pull-off
| ~  vibrato
| +  harmonic
| x  Mute note
Suggest correction
Give kudos to tab author, rate the tab!
1 2 3 4 5
comments
print report bad tab
guest
You may want to rate the tab now too:
select rating
Wanna post a correction for this tab? Suggest correction