Oops, an error
Loading. Please wait.

Outlaw Tab

686 views 3 this week
no commentswrite comment
1 2 3 4 5
please rate
add to favorites
launch autoscroll
font size
0
reset
how to read this tab
guitar tuner
Autoscroll
slow
fast
+/-
esc
set tempo
stop
Help us to improve Ultimate-Guitar.com Take our survey!
×
Contributor
Well, this is my first tab... and i'm doin it all by ear... so let me know how I do.... 
a huge fan of The Lordz, but Tim armstrong if fucking awesome

The Lordz Ft. Tim Armstrong
Outlaw


Intro
-Distortion
e------------------------------------------------------|
B------------------------------------------------------|
G---6-6---6-6---5-5---5-5---3-3---3-3---3-3---3-3------|
D---6-6---6-6---5-5---5-5---3-3---3-3---3-3---3-3------|
A---4-4---4-4---3-3---3-3---1-1---1-1---1-1---1-1------|
E------------------------------------------------------|
-Play 4 Times-

-CHORUS-
Guitar 1. -Distortion
e------------------------------|
B------------------------------|
G---6------5------3------5-----|
D---6-x8---5-x8---3-x8---5-x8--|
A---4------3------1------3-----|
E------------------------------|
-Play that twice-

-CHOROUS-
Guitar 2. -Clean
e---------------------------|
B---------------------------|
G---6------5------3---------|
D---6------5------3---------|
A---4------3------1---------|
E---------------------------|
-Play Twice with Guitar 1.-

-1ST VERSE-
Guitar -Clean
e---------------------------|
B---------------------------|
G---6------5------3---------|
D---6------5------3---------|
A---4------3------1---------|
E---------------------------|
-Play 4 Times-

-PRE-CHORUS-
Guitar 1. -Distortion & Palm Muted
e------------------------------|
B------------------------------|
G---6------5------3------5-----|
D---6-x8---5-x8---3-x8---5-x8--|
A---4------3------1------3-----|
E------------------------------|
-Play Twice-

-PRE-CHORUS-
Guitar 2. -Clean
e---------------------------|
B---------------------------|
G---6------5------3---------|
D---6------5------3---------|
A---4------3------1---------|
E---------------------------|
-Play Twice with Guitar 1.-


-CHORUS-
Guitar 1. -Distortion
e------------------------------|
B------------------------------|
G---6------5------3------5-----|
D---6-x8---5-x8---3-x8---5-x8--|
A---4------3------1------3-----|
E------------------------------|
-Play 4 times-

-CHOROUS-
Guitar 2. -Clean
e---------------------------|
B---------------------------|
G---6------5------3---------|
D---6------5------3---------|
A---4------3------1---------|
E---------------------------|
-Play 4 times with Guitar 1.-

-2ND VERSE-
Guitar -Clean
e---------------------------|
B---------------------------|
G---6------5------3---------|
D---6------5------3---------|
A---4------3------1---------|
E---------------------------|
-Play 4 Times-

-PRE-CHORUS-
Guitar 1. -Distortion & Palm Muted
e------------------------------|
B------------------------------|
G---6------5------3------5-----|
D---6-x8---5-x8---3-x8---5-x8--|
A---4------3------1------3-----|
E------------------------------|
-Play Twice-


-PRE-CHORUS-
Guitar 2. -Clean
e---------------------------|
B---------------------------|
G---6------5------3---------|
D---6------5------3---------|
A---4------3------1---------|
E---------------------------|
-Play Twice with Guitar 1.-


-CHORUS-
Guitar 1. -Distortion
e------------------------------|
B------------------------------|
G---6------5------3------5-----|
D---6-x8---5-x8---3-x8---5-x8--|
A---4------3------1------3-----|
E------------------------------|
-Play 4 times-

-CHOROUS-
Guitar 2. -Clean
e---------------------------|
B---------------------------|
G---6------5------3---------|
D---6------5------3---------|
A---4------3------1---------|
E---------------------------|
-Play 4 times with Guitar 1.-

-3ND VERSE-
Guitar -Clean
e---------------------------|
B---------------------------|
G---6------5------3---------|
D---6------5------3---------|
A---4------3------1---------|
E---------------------------|
-Play 4 Times-

--**NO PRE-CHORUS**--


-CHORUS-
Guitar 1. -Distortion
e------------------------------|
B------------------------------|
G---6------5------3------5-----|
D---6-x8---5-x8---3-x8---5-x8--|
A---4------3------1------3-----|
E------------------------------|
-Play 4 times-

-CHOROUS-
Guitar 2. -Clean
e---------------------------|
B---------------------------|
G---6------5------3---------|
D---6------5------3---------|
A---4------3------1---------|
E---------------------------|
-Play 4 times with Guitar 1.-

-LAST CHORUS-
Guitar 1. -Distortion
e------------------------------|
B------------------------------|
G---6------5------3------5-----|
D---6-x8---5-x8---3-x8---5-x8--|
A---4------3------1------3-----|
E------------------------------|
-Play 4 times-

-LAST CHORUS-
Guitar 2.
e-------------------------------------------------|
B-------------------------------------------------|
G-------------------------------------------------|
D---10-X8---13-X3---11-X3---8-X2---6-X8---8-X8----|
A----8------11-------9------6------4------6-------|
E-------------------------------------------------|
-Play 4 times wth Guitar 1.-

Lyrics:
[Chorus:] I'm an outlaw baby, I'm an outlaw baby
I'm an outlaw baby, and you ain't ever gonna bring me in
I'm an outlaw baby, I'm an outlaw baby
I'm an outlaw baby, and you ain't ever gonna bring me in

With our fixes in, I don't trust it (trust it)
Smoke that's strong then you dust it (dust it)
And when your ways are old, then you're rusted (rusted)
Except to us, you get busted (busted)
It's our city, gonna take it (take it)
Rancid roll mistaken (mistaken)
And if it ain't broke, gonna break it (break it)
And if it ain't mine, gonna take it

[Pre-Chorus:] Now someone better tell me something
Something I don't already know
'Cause this brigade is gonna rock the world
Lordz are in control

[Chorus]

It started way back in the day as a young one
Noticing what life's about and how to get it done
I'm an outlaw, 'member I ain't got nothing to lose[ Lyrics found on 
]
Socket full of dreams that were never controlled
But I'm still here going for mine
You could never hold me back, take a little ride, chase the wine
This time, and this is your shot from the block, it's hot
Man I never give up what I got

[Pre-Chorus]

[Chorus]

I'm an outlaw baby, breaking law kind of sore
The best you ever saw, dirty rotten to the core
I'm a hellcat in a black Cadillac
Sharkskin suit with a feather in the hat
East coast, bay shops, Purple Bay Ridge
I'm an outlaw baby from the Verrazano Bridge
(Whoa, Rancid) I'm an outlaw baby from the Verrazano Bridge

[Chorus]

I'm an outlaw baby
I'm an outlaw baby, 'cause this brigade is gonna rock the world
I'm an outlaw baby, Lordz are in control
I'm an outlaw baby, you ain't ever gonna bring me in

http://www.thelordz.net


----Alright... Well, thanks and e-mail me or sumthing to let me know if it works out for 
alright, peace.

-Sal.
Suggest correction What's this?
You can suggest a correction to this tab. Community and Mods will review your correction and vote to approve or reject it.
comments
We did not receive enough feedback on this tab! Please rate:
print report bad tab
1 2 3 4 5
I want to post or [tab]
guest
You may want to rate the tab now too:
select rating
Please do not post tabs as comments. Select "correction" instead!