Oops, an error
Loading. Please wait.

Arsenic Tab

version 2
version 2

Whole song

584 views 3 this week
no commentswrite comment
1 2 3 4 5
please rate
add to favorites
launch autoscroll
font size
0
reset
how to read this tab
guitar tuner
Autoscroll
slow
fast
+/-
esc
set tempo
stop
Help us to improve Ultimate-Guitar.com Take our survey!
×
Author
Difficulty
intermediate
The Loved Ones
Arsenic


The tab is in the order that the song is played, just follow along. First tab by the 
so rate it please. Enjoy!

Legend: ~ (Held Note); h (Hammer-On); p (Pull-Off); . (Palm Mute);          ^ (Bend); 
(Play Note 8 or 16 Times); / (Slide)


Intro

E-------------------------------------------------------------------|
B-------------------------------------------------------------------|
G------2----2------------2-----2--------2-----2--------5------------|
D-0-3---0-3--3-0-------3-----3--------3-----3---3-0----5-x16--------|
A------------------1-1----1----------------------------3------0-2-3-|
E----------------------------------1------1-------------------------|X2


Verse

E--------------------------------------|
B--------------------------------------|
G-7---------3-------------------5------|
D-7--x16----3--x16----3---------5--x16-|
A-5---------1---------3--x16----3------|
E---------------------1----------------|X2


Chorus

E----------------------|
B----------------------|
G-3-------------5------|
D-3—-x8--3------5--x16-|
A-1------3—-x8--3------|
E--------1-------------|X2

|-------------------------------------------------------|
|-------------------------------------------------------|
|-3-------------7------5------33333330------------5-----|
|-3—-x8--3------7—-x8--5--x8—-33333330--33333333--5—x16-|
|-1------3—-x8--5------3------11111110--33333333--3-----|
|--------1------------------------------11111111--------|
                              .....     .....

E---------------------------|
B---------------------------|
G------------2----2----2^~~-|
D--------0-3--0-3--0-3------|
A-0-2-3---------------------|
E---------------------------|


Verse

E--------------------------------------|
B--------------------------------------|
G-7---------3-------------------5------|
D-7--x16----3--x16----3---------5--x16-|
A-5---------1---------3--x16----3------|
E---------------------1----------------|X2


Chorus

E----------------------|
B----------------------|
G-3-------------5------|
D-3—-x8--3------5--x16-|
A-1------3—-x8--3------|
E--------1-------------|X2

|-------------------------------------------------------|
|-------------------------------------------------------|
|-3-------------7------5------33333330------------5-----|
|-3—-x8--3------7—-x8--5--x8—-33333330--33333333--5—x16-|
|-1------3—-x8--5------3------11111110--33333333--3-----|
|--------1------------------------------11111111--------|
                              .....     .....


Interlude

E--------------------------|  |-------------------------------------|
B--------------------------|  |-------------------------------------|
G-5~~~------2h3-5~---------|  |--7-x16—-3-x16--10-x16--5-x16--------|
D-5~~~-5/3---------2h3p2---|  |--5------1------8-------3------0h3/5-|
A-3~~~-5/3---------------3-|  |-------------------------------------|
E------3/1-----------------|  |-------------------------------------|X2
                                 .      .      .       .    (Vary PM)


Chorus

E----------------------|
B----------------------|
G-3-------------5------|
D-3—-x8--3------5--x16-|
A-1------3—-x8--3------|
E--------1-------------|X2

|--------------------------------------------------------------|
|--------------------------------------------------------------|
|-3-------------7------5------33333330------------5------------|
|-3—-x8--3------7—-x8--5--x8—-33333330--33333333--5—x16--------|
|-1------3—-x8--5------3------11111110--33333333--3------0-2-3-|
|--------1------------------------------11111111---------------|
                              .....     .....


Outro

E-------------------------------------------------------------------|
B-------------------------------------------------------------------|
G------2----2------------2-----2--------2-----2--------5------------|
D-0-3---0-3--3-0-------3-----3--------3-----3---3-0----5-x16--------|
A------------------1-1----1----------------------------3------0-2-3-|
E----------------------------------1------1-------------------------|

E--------------------------|
B--------------------------|
G-7~~~-3~~~----------------|
D-7~~~-3~~~-3~~~~~~~~~~~~~~|
A-5~~~-1~~~-3~~~~~~~~~~~~~~|
E-----------1~~~~~~~~~~~~~~|
Suggest correction
Give kudos to tab author, rate the tab!
1 2 3 4 5
comments
print report bad tab
guest
You may want to rate the tab now too:
select rating
Please do not post tabs as comments. Select "correction" instead!