Oops, an error
Loading. Please wait.

Breathe In Tab

1,314 views 1 this week
no commentswrite comment
1 2 3 4 5
2 more votes to show rating
add to favorites
launch autoscroll
font size
0
reset
how to read this tab
guitar tuner
Autoscroll
slow
fast
+/-
esc
set tempo
stop
Help us to improve Ultimate-Guitar.com Take our survey!
×
Author
Difficulty
novice
-----------------------------------------------------------------
Breathe In - The Loved Ones
-----------------------------------------------------------------
Tabbed by: Bair
Email: bair_morritt@hotmail.com

Tuning: Standard

Intro:
e|------------------------------------------|
B|------------------------------------------|
G|------77---------9999------77-------------|
D|--44--77-77-(X3)-9999--44--77-77-(X3)-----|
A|--44--55-77------7777--44--55-77----------|
E|--22-----55------0000--22-----55----------|

Verse:
e|------------------------------------------|
B|------------------------------------------|
G|---------------99--77-66-77-66------------|
D|--44-44-4-2-4--99--77-66-77-66-(X4)-------|
A|--44-44-4-2-4--77--55-44-55-44------------|
E|--22-22-2-0-2-----------------------------|
"Hey angel, can we dance on the edge of this disaster?"
 
Pre-Chorus:
e|------------------------------------------|
B|------------------------------------------|
G|--66666666--77777777--999999999999--------|
D|--66666666--77777777--999999999999--------|
A|--44444444--55555555--777777777777--------|
E|------------------------------------------|
"The trauma's lead to a bottomless despair...."

Chorus:
e|----------------------------------------------|
B|----------------------------------------------|
G|------77---------9999------77---------9999----|
D|--44--77-77-(X3)-9999--44--77-77-(X3)-9999----|
A|--44--55-77------7777--44--55-77------7777----|
E|--22-----55------0000--22-----55------0000----|
"so breath in.....if i'm supposed to feel this."

-Then Verse
-Then Pre-Chorus
-Then Chorus

Interlude:
e|---------------------|
B|---------------------|
G|--7------------------|
D|--7--77--22-(X4)-----|
A|--5--77--22----------|
E|-----55--00----------|
"Oh, i've been here before."

e|----------------------------------|
B|----------------------------------|
G|--------2222--44444444------------|
D|--4444--2222--44444444-(X4)-------|
A|--4444--0000--22222222------------|
E|--2222----------------------------|
"Cause the game is rigged...."

-Then Chorus (X2)
Suggest correction
Give kudos to tab author, rate the tab!
1 2 3 4 5
comments
print report bad tab
guest
You may want to rate the tab now too:
select rating
Wanna post a correction for this tab? Suggest correction