Oops, an error
Loading. Please wait.

Chicken Tab

583 views 1 this week
1 commentread comment
1 2 3 4 5
please rate
add to favorites
launch autoscroll
font size
0
reset
how to read this tab
guitar tuner
Tab Pro tools
  • play this tab
  • loop segment
  • change instrument
  • show fretboard
  • metronome
×
Best way to learn
"Chicken"
Autoscroll
slow
fast
+/-
esc
set tempo
stop
Contributor
Difficulty
novice
-----------------------------------------------------------------
Chicken - The Loved Ones
-----------------------------------------------------------------
Tabbed by: Bair
Email: bair_morritt@hotmail.com

Tuning: Standard

Intro:
e|----------------|
B|----------------|
G|--5-------------|
D|--5-(LET-RING)--|
A|--3-------------|
E|----------------|

Chorus:
e|------------------------------------------|
B|------------------------------------------|
G|--555--------222--------------------------|
D|--555--5555--222--3333-(X4)---------------|
A|--333--5555--000--3333--------------------|
E|-------3333-------1111--------------------|
"He said, this ain't me, but I gotta eat and feed my kid"

Verse:
e|-----------------------------------------------------------|
B|-----------------------------------------------------------|
G|--5-5555555-------------5-555--------------------55---5-9--|
D|--5-5555555--3-3333333--5-555--5-555--3333--5555-55-5-5-9--|
A|--3-3333333--3-3333333--3-333--5-555--3333--5555-33-5-3-7--|
E|-------------1-1111111---------3-333--1111--3333----3------|
"Another round, his guts spill out, turns out his ships run aground...."

e|----------------------------------------------------------|
B|----------------------------------------------------------|
G|--22222222----------------------5555-44--2222--5555-9999--|
D|--22222222--33333333--55555555--5555-44--2222--5555-9999--|
A|--00000000--33333333--55555555--3333-22--0000--3333-7777--|
E|------------11111111--33333333----------------------------|
"So pour another, it's 3 AM, oh god this is insane...."

e|--------------------------------|
B|--------------------------------|
G|----------------------2---------|
D|--55555555--33333333--2--2--3---|
A|--55555555--33333333--0--2--3---|
E|--33333333--11111111-----0--1---|
"but it's you I'll always blame. And it's killing me"

-Then Chorus
-Then Verse

Interlude: (P.M)
e|--------------------------------------------------------------|
B|--------------------------------------------------------------|
G|--5555--------2222-------------555---------222----------------|
D|--5555--3333--2222--5555-(X4)--555---333---222---555-(X2)--3--|
A|--3333--3333--0000--5555-------333---333---000---555-------3--|
E|--------1111--------3333-------------111---------333-------1--|
"Surprise, surprise I'm here a three beer buzz has got the best of you again"

Outro:
e|-------------------------------------------------------------|
B|-------------------------------------------------------------|
G|--55555555------------22222222-------------------------------|
D|--55555555--33333333--22222222--55555555-(X4)--3-(LET-RING)--|
A|--33333333--33333333--00000000--55555555-------3-------------|
E|------------11111111------------33333333-------1-------------|
"I kind of get the feeling that you're still the same...."
comments
We did not receive enough feedback on this tab! Please rate:
print report bad tab
1 2 3 4 5
1 comment total.
0 reply
planetsmasher10 wrote on February 26 2008, 05:30 pm

hard to read, have to work to understand order and how many times you play each section.

I want to post or [tab]
guest
You may want to rate the tab now too:
select rating
Please do not post tabs as comments. Select "correction" instead!