Oops, an error
Loading. Please wait.

Drastic Tab

1,960 views 1 this week
no commentswrite comment
1 2 3 4 5
3 more votes to show rating
add to favorites
launch autoscroll
font size
0
reset
how to read this tab
guitar tuner
Autoscroll
slow
fast
+/-
esc
set tempo
stop
Help us to improve Ultimate-Guitar.com Take our survey!
×
Author
Tabbed by:topher2552
Email:Topher2552@yahoo.com

My First tab, it's quite simple to learn and play. The strumming isn't spot on, but its 
to figure out. questions, comments please e-mail.

Tuning:DADGBe


Intro
e|----------------------3-3-3-3-3-3-3-3---------------|
B|----------------------3-3-3-3-3-3-3-3---------------|
G|--2-2-2-2-2-2-2-2-----0-0-0-0-0-0-0-0---------------|
D|--2-2-2-2-2-2-2-2-----0-0-0-0-0-0-0-0---------------| X3
A|--0-0-0-0-0-0-0-0-----2-2-2-2-2-2-2-2---------------|
D|--0-0-0-0-0-0-0-0-----------------------------------|

Verse
e|--2-2-2-2-2-2--3-3-3-3-3-3--2-2-2-2-2-2-----------2--------|
B|--3-3-3-3-3-2--3-3-3-3-3-3--3-3-3-3-3-3-----------3--------|
G|--2-2-2-2-2-3--0-0-0-0-0-0--2-2-2-2-2-2-----------2--------|
D|--0-0-0-0-0-0--0-0-0-0-0-0--0-0-0-0-0-0-----------0--------|X4
A|--0-0-0-0-0-0--1-1-1-1-1-1--0-0-0-0-0-0-----------0--------|
D|--0-0-0-0-0-0---------------0-0-0-0-0-0---5-4-2-0-0-5-4-2--|

Pre-Chorus
e|----------------------3-3-3-3-3-3-3-3---------------|
B|----------------------3-3-3-3-3-3-3-3---------------|
G|--2-2-2-2-2-2-2-2-----0-0-0-0-0-0-0-0---------------|
D|--2-2-2-2-2-2-2-2-----0-0-0-0-0-0-0-0---------------| X3
A|--0-0-0-0-0-0-0-0-----2-2-2-2-2-2-2-2---------------|
D|--0-0-0-0-0-0-0-0-----------------------------------|


Chorus
e|--2-2-2-2-2-2---------------3-3-3-3-3-3-3-3---------|
B|--3-3-3-3-3-3--0-0-0-0-0-0--3-3-3-3-3-3-3-3---------|
G|--2-2-2-2-2-2--0-0-0-0-0-0--0-0-0-0-0-0-0-0---------|
D|--0-0-0-0-0-0--2-2-2-2-2-2--0-0-0-0-0-0-0-0---------|
A|--0-0-0-0-0-0--2-2-2-2-2-2--2-2-2-2-2-2-2-2---------|
D|--0-0-0-0-0-0--0-0-0-0-0-0--0-0-0-0-0-0-0-0---------|

e|--2-2-2-2-2-2---------------3-3-3-3-3-3-3-3---------|
B|--3-3-3-3-3-3--0-0-0-0-0-0--3-3-3-3-3-3-3-3---------|
G|--2-2-2-2-2-2--0-0-0-0-0-0--0-0-0-0-0-0-0-0---------|
D|--0-0-0-0-0-0--2-2-2-2-2-2--0-0-0-0-0-0-0-0---------|
A|--0-0-0-0-0-0--2-2-2-2-2-2--2-2-2-2-2-2-2-2---------|
D|--0-0-0-0-0-0--0-0-0-0-0-0--0-0-0-0-0-0-0-0---------|

e|--2-2-2-2-2-2---------------3-3-3-3-3-3-3-3---3-3-3-3---3-3-3-3---|
B|--3-3-3-3-3-3--0-0-0-0-0-0--3-3-3-3-3-3-3-3---3-3-3-3---3-3-3-3---|
G|--2-2-2-2-2-2--0-0-0-0-0-0--0-0-0-0-0-0-0-0---0-0-0-0---0-0-0-0---|
D|--0-0-0-0-0-0--2-2-2-2-2-2--0-0-0-0-0-0-0-0---0-0-0-0---0-0-0-0---|
A|--0-0-0-0-0-0--2-2-2-2-2-2--2-2-2-2-2-2-2-2---2-2-2-2---2-2-2-2---|
D|--0-0-0-0-0-0--0-0-0-0-0-0--0-0-0-0-0-0-0-0---0-0-0-0---0-0-0-0---|

Verse
e|--2-2-2-2-2-2--3-3-3-3-3-3--2-2-2-2-2-2-----------2---------|
B|--3-3-3-3-3-2--3-3-3-3-3-3--3-3-3-3-3-3-----------3---------|
G|--2-2-2-2-2-3--0-0-0-0-0-0--2-2-2-2-2-2-----------2---------|
D|--0-0-0-0-0-0--0-0-0-0-0-0--0-0-0-0-0-0-----------0---------|X4
A|--0-0-0-0-0-0--2-2-2-2-2-2--0-0-0-0-0-0-----------0---------|
D|--0-0-0-0-0-0---------------0-0-0-0-0-0---5-4-2-0-0-5-4-2-0-|

Pre-Chorus
e|----------------------3-3-3-3-3-3-3-3---------------|
B|----------------------3-3-3-3-3-3-3-3---------------|
G|--2-2-2-2-2-2-2-2-----0-0-0-0-0-0-0-0---------------|
D|--2-2-2-2-2-2-2-2-----0-0-0-0-0-0-0-0---------------| X3
A|--0-0-0-0-0-0-0-0-----2-2-2-2-2-2-2-2---------------|
D|--0-0-0-0-0-0-0-0-----------------------------------|


Chorus
e|--2-2-2-2-2-2---------------3-3-3-3-3-3-3-3---------|
B|--3-3-3-3-3-3--0-0-0-0-0-0--3-3-3-3-3-3-3-3---------|
G|--2-2-2-2-2-2--0-0-0-0-0-0--0-0-0-0-0-0-0-0---------|
D|--0-0-0-0-0-0--2-2-2-2-2-2--0-0-0-0-0-0-0-0---------|
A|--0-0-0-0-0-0--2-2-2-2-2-2--2-2-2-2-2-2-2-2---------|
D|--0-0-0-0-0-0--0-0-0-0-0-0--0-0-0-0-0-0-0-0---------|

e|--2-2-2-2-2-2---------------3-3-3-3-3-3-3-3---------|
B|--3-3-3-3-3-3--0-0-0-0-0-0--3-3-3-3-3-3-3-3---------|
G|--2-2-2-2-2-2--0-0-0-0-0-0--0-0-0-0-0-0-0-0---------|
D|--0-0-0-0-0-0--2-2-2-2-2-2--0-0-0-0-0-0-0-0---------|
A|--0-0-0-0-0-0--2-2-2-2-2-2--2-2-2-2-2-2-2-2---------|
D|--0-0-0-0-0-0--0-0-0-0-0-0--0-0-0-0-0-0-0-0---------|

e|--2-2-2-2-2-2---------------3-3-3-3-3-3-3-3---3-3-3-3---3-3-3-3---|
B|--3-3-3-3-3-3--0-0-0-0-0-0--3-3-3-3-3-3-3-3---3-3-3-3---3-3-3-3---|
G|--2-2-2-2-2-2--0-0-0-0-0-0--0-0-0-0-0-0-0-0---0-0-0-0---0-0-0-0---|
D|--0-0-0-0-0-0--2-2-2-2-2-2--0-0-0-0-0-0-0-0---0-0-0-0---0-0-0-0---|X2
A|--0-0-0-0-0-0--2-2-2-2-2-2--2-2-2-2-2-2-2-2---2-2-2-2---2-2-2-2---|
D|--0-0-0-0-0-0--0-0-0-0-0-0--0-0-0-0-0-0-0-0---0-0-0-0---0-0-0-0---|

Ending
e|--------2-2-2--3-3-3--3-3-3--2---------|
B|-0-0-0--3-3-3--3-3-3--3-3-3--3---------|
G|-2-2-2--2-2-2--0-0-0--4-4-4--2---------|
D|-2-2-2--0-0-0--0-0-0--5-5-5--0---------|
A|-0-0-0--0-0-0--2-2-2--5-5-5--0---------|
D|-0-0-0--0-0-0--0-0-0--3-3-3--0---------|


| /  slide up
| \  slide down
| h  hammer-on
| p  pull-off
| ~  vibrato
| +  harmonic
| x  Mute note
Suggest correction
Give kudos to tab author, rate the tab!
1 2 3 4 5
comments
print report bad tab
guest
You may want to rate the tab now too:
select rating
Wanna post a correction for this tab? Suggest correction